  0
SECTION
  2
HEADER
  9
$ACADVER
  1
AC1014
  9
$ACADMAINTVER
 70
     0
  9
$DWGCODEPAGE
  3
ANSI_1252
  9
$INSBASE
 10
0.0
 20
0.0
 30
0.0
  9
$EXTMIN
 10
466.295593
 20
-206.147753
 30
0.0
  9
$EXTMAX
 10
871.714663
 20
318.51222
 30
0.0
  9
$LIMMIN
 10
12.823617
 20
-218.336824
  9
$LIMMAX
 10
425.311924
 20
320.280633
  9
$ORTHOMODE
 70
     1
  9
$REGENMODE
 70
     1
  9
$FILLMODE
 70
     1
  9
$QTEXTMODE
 70
     0
  9
$MIRRTEXT
 70
     1
  9
$DRAGMODE
 70
     2
  9
$LTSCALE
 40
5.0
  9
$OSMODE
 70
   675
  9
$ATTMODE
 70
     1
  9
$TEXTSIZE
 40
7.5
  9
$TRACEWID
 40
0.05
  9
$TEXTSTYLE
  7
ROMANT
  9
$CLAYER
  8
OBJECT
  9
$CELTYPE
  6
BYLAYER
  9
$CECOLOR
 62
   256
  9
$CELTSCALE
 40
1.0
  9
$DELOBJ
 70
     1
  9
$DISPSILH
 70
     0
  9
$DIMSCALE
 40
1.0
  9
$DIMASZ
 40
4.0
  9
$DIMEXO
 40
0.0625
  9
$DIMDLI
 40
0.38
  9
$DIMRND
 40
0.0
  9
$DIMDLE
 40
0.0
  9
$DIMEXE
 40
0.18
  9
$DIMTP
 40
0.0
  9
$DIMTM
 40
0.0
  9
$DIMTXT
 40
0.18
  9
$DIMCEN
 40
0.09
  9
$DIMTSZ
 40
0.0
  9
$DIMTOL
 70
     0
  9
$DIMLIM
 70
     0
  9
$DIMTIH
 70
     1
  9
$DIMTOH
 70
     1
  9
$DIMSE1
 70
     0
  9
$DIMSE2
 70
     0
  9
$DIMTAD
 70
     0
  9
$DIMZIN
 70
     0
  9
$DIMBLK
  1

  9
$DIMASO
 70
     1
  9
$DIMSHO
 70
     1
  9
$DIMPOST
  1

  9
$DIMAPOST
  1

  9
$DIMALT
 70
     0
  9
$DIMALTD
 70
     2
  9
$DIMALTF
 40
25.4
  9
$DIMLFAC
 40
1.0
  9
$DIMTOFL
 70
     0
  9
$DIMTVP
 40
0.0
  9
$DIMTIX
 70
     0
  9
$DIMSOXD
 70
     0
  9
$DIMSAH
 70
     0
  9
$DIMBLK1
  1

  9
$DIMBLK2
  1

  9
$DIMSTYLE
  2
STANDARD
  9
$DIMCLRD
 70
     0
  9
$DIMCLRE
 70
     0
  9
$DIMCLRT
 70
     0
  9
$DIMTFAC
 40
1.0
  9
$DIMGAP
 40
0.09
  9
$DIMJUST
 70
     0
  9
$DIMSD1
 70
     0
  9
$DIMSD2
 70
     0
  9
$DIMTOLJ
 70
     1
  9
$DIMTZIN
 70
     0
  9
$DIMALTZ
 70
     0
  9
$DIMALTTZ
 70
     0
  9
$DIMFIT
 70
     5
  9
$DIMUPT
 70
     0
  9
$DIMUNIT
 70
     2
  9
$DIMDEC
 70
     4
  9
$DIMTDEC
 70
     4
  9
$DIMALTU
 70
     2
  9
$DIMALTTD
 70
     2
  9
$DIMTXSTY
  7
ROMANT
  9
$DIMAUNIT
 70
     0
  9
$LUNITS
 70
     2
  9
$LUPREC
 70
     4
  9
$SKETCHINC
 40
0.1
  9
$FILLETRAD
 40
0.0
  9
$AUNITS
 70
     0
  9
$AUPREC
 70
     0
  9
$MENU
  1
acad
  9
$ELEVATION
 40
0.0
  9
$PELEVATION
 40
0.0
  9
$THICKNESS
 40
0.0
  9
$LIMCHECK
 70
     0
  9
$BLIPMODE
 70
     0
  9
$CHAMFERA
 40
0.0
  9
$CHAMFERB
 40
0.0
  9
$CHAMFERC
 40
0.0
  9
$CHAMFERD
 40
0.0
  9
$SKPOLY
 70
     0
  9
$TDCREATE
 40
2449623.700090162
  9
$TDUPDATE
 40
2453074.536766516
  9
$TDINDWG
 40
0.1996870949
  9
$TDUSRTIMER
 40
0.1996870949
  9
$USRTIMER
 70
     1
  9
$ANGBASE
 50
0.0
  9
$ANGDIR
 70
     0
  9
$PDMODE
 70
     0
  9
$PDSIZE
 40
0.0
  9
$PLINEWID
 40
0.0
  9
$COORDS
 70
     1
  9
$SPLFRAME
 70
     0
  9
$SPLINETYPE
 70
     6
  9
$SPLINESEGS
 70
     8
  9
$ATTDIA
 70
     0
  9
$ATTREQ
 70
     1
  9
$HANDLING
 70
     1
  9
$HANDSEED
  5
10A6
  9
$SURFTAB1
 70
     6
  9
$SURFTAB2
 70
     6
  9
$SURFTYPE
 70
     6
  9
$SURFU
 70
     6
  9
$SURFV
 70
     6
  9
$UCSNAME
  2

  9
$UCSORG
 10
0.0
 20
0.0
 30
0.0
  9
$UCSXDIR
 10
1.0
 20
0.0
 30
0.0
  9
$UCSYDIR
 10
0.0
 20
1.0
 30
0.0
  9
$PUCSNAME
  2

  9
$PUCSORG
 10
0.0
 20
0.0
 30
0.0
  9
$PUCSXDIR
 10
1.0
 20
0.0
 30
0.0
  9
$PUCSYDIR
 10
0.0
 20
1.0
 30
0.0
  9
$USERI1
 70
     0
  9
$USERI2
 70
     0
  9
$USERI3
 70
     0
  9
$USERI4
 70
     0
  9
$USERI5
 70
     0
  9
$USERR1
 40
0.0
  9
$USERR2
 40
0.0
  9
$USERR3
 40
0.0
  9
$USERR4
 40
0.0
  9
$USERR5
 40
0.0
  9
$WORLDVIEW
 70
     1
  9
$SHADEDGE
 70
     3
  9
$SHADEDIF
 70
    70
  9
$TILEMODE
 70
     1
  9
$MAXACTVP
 70
    16
  9
$PINSBASE
 10
0.0
 20
0.0
 30
0.0
  9
$PLIMCHECK
 70
     0
  9
$PEXTMIN
 10
1.000000E+20
 20
1.000000E+20
 30
1.000000E+20
  9
$PEXTMAX
 10
-1.000000E+20
 20
-1.000000E+20
 30
-1.000000E+20
  9
$PLIMMIN
 10
0.0
 20
0.0
  9
$PLIMMAX
 10
12.0
 20
9.0
  9
$UNITMODE
 70
     0
  9
$VISRETAIN
 70
     0
  9
$PLINEGEN
 70
     0
  9
$PSLTSCALE
 70
     1
  9
$TREEDEPTH
 70
  3020
  9
$PICKSTYLE
 70
     1
  9
$CMLSTYLE
  2
STANDARD
  9
$CMLJUST
 70
     0
  9
$CMLSCALE
 40
1.0
  9
$PROXYGRAPHICS
 70
     1
  9
$MEASUREMENT
 70
     0
  0
ENDSEC
  0
SECTION
  2
CLASSES
  0
CLASS
  1
DICTIONARYVAR
  2
AcDbDictionaryVar
  3
"AutoCAD"
 90
        0
280
     0
281
     0
  0
CLASS
  1
LWPOLYLINE
  2
AcDbPolyline
  3
"AutoCAD"
 90
        0
280
     0
281
     1
  0
CLASS
  1
HATCH
  2
AcDbHatch
  3
"ACAD_SEDONA"
 90
        0
280
     0
281
     1
  0
ENDSEC
  0
SECTION
  2
TABLES
  0
TABLE
  2
VPORT
  5
8
100
AcDbSymbolTable
 70
     1
  0
VPORT
  5
109C
100
AcDbSymbolTableRecord
100
AcDbViewportTableRecord
  2
*ACTIVE
 70
     0
 10
0.0
 20
0.0
 11
1.0
 21
1.0
 12
669.016694
 22
56.190749
 13
0.0
 23
0.0
 14
1.0
 24
1.0
 15
0.0
 25
0.0
 16
0.0
 26
0.0
 36
1.0
 17
0.0
 27
0.0
 37
0.0
 40
530.392005
 41
1.750909
 42
50.0
 43
0.0
 44
0.0
 50
0.0
 51
0.0
 71
     0
 72
   100
 73
     1
 74
     0
 75
     0
 76
     0
 77
     0
 78
     0
  0
ENDTAB
  0
TABLE
  2
LTYPE
  5
5
100
AcDbSymbolTable
 70
     3
  0
LTYPE
  5
11
100
AcDbSymbolTableRecord
100
AcDbLinetypeTableRecord
  2
BYBLOCK
 70
     0
  3

 72
    65
 73
     0
 40
0.0
  0
LTYPE
  5
12
100
AcDbSymbolTableRecord
100
AcDbLinetypeTableRecord
  2
BYLAYER
 70
     0
  3

 72
    65
 73
     0
 40
0.0
  0
LTYPE
  5
13
100
AcDbSymbolTableRecord
100
AcDbLinetypeTableRecord
  2
CONTINUOUS
 70
     0
  3
Solid line
 72
    65
 73
     0
 40
0.0
  0
LTYPE
  5
25
100
AcDbSymbolTableRecord
100
AcDbLinetypeTableRecord
  2
CENTER
 70
     0
  3
____ _ ____ _ ____ _ ____ _ ____ _ ____ _ ____ 
 72
    65
 73
     4
 40
2.0
 49
1.25
 74
     0
 49
-0.25
 74
     0
 49
0.25
 74
     0
 49
-0.25
 74
     0
  0
LTYPE
  5
26
100
AcDbSymbolTableRecord
100
AcDbLinetypeTableRecord
  2
HIDDEN
 70
     0
  3
__ __ __ __ __ __ __ __ __ __ __ __ __ __ __ __
 72
    65
 73
     2
 40
0.375
 49
0.25
 74
     0
 49
-0.125
 74
     0
  0
ENDTAB
  0
TABLE
  2
LAYER
  5
2
100
AcDbSymbolTable
 70
     7
  0
LAYER
  5
E
100
AcDbSymbolTableRecord
100
AcDbLayerTableRecord
  2
0
 70
     0
 62
     7
  6
CONTINUOUS
  0
LAYER
  5
29
100
AcDbSymbolTableRecord
100
AcDbLayerTableRecord
  2
OBJECT
 70
     0
 62
     2
  6
CONTINUOUS
  0
LAYER
  5
2A
100
AcDbSymbolTableRecord
100
AcDbLayerTableRecord
  2
DIM
 70
     0
 62
     6
  6
CONTINUOUS
  0
LAYER
  5
2B
100
AcDbSymbolTableRecord
100
AcDbLayerTableRecord
  2
CENTER
 70
     0
 62
     3
  6
CENTER
  0
LAYER
  5
2C
100
AcDbSymbolTableRecord
100
AcDbLayerTableRecord
  2
BORDER
 70
     0
 62
     5
  6
CONTINUOUS
  0
LAYER
  5
2D
100
AcDbSymbolTableRecord
100
AcDbLayerTableRecord
  2
HATCH
 70
     0
 62
     4
  6
CONTINUOUS
  0
LAYER
  5
EB0
100
AcDbSymbolTableRecord
100
AcDbLayerTableRecord
  2
LIMITS
 70
     0
 62
     7
  6
CONTINUOUS
  0
ENDTAB
  0
TABLE
  2
STYLE
  5
3
100
AcDbSymbolTable
 70
     7
  0
STYLE
  5
F
100
AcDbSymbolTableRecord
100
AcDbTextStyleTableRecord
  2
STANDARD
 70
     0
 40
0.0
 41
1.0
 50
0.0
 71
     0
 42
0.2
  3
txt
  4

  0
STYLE
  5
20
100
AcDbSymbolTableRecord
100
AcDbTextStyleTableRecord
  2
ROMANT
 70
     0
 40
7.5
 41
1.0
 50
0.0
 71
     0
 42
7.5
  3
romant
  4

  0
STYLE
  5
22
100
AcDbSymbolTableRecord
100
AcDbTextStyleTableRecord
  2
ROMANC
 70
     0
 40
0.0531
 41
1.0
 50
0.0
 71
     0
 42
0.0531
  3
romanc
  4

  0
STYLE
  5
24
100
AcDbSymbolTableRecord
100
AcDbTextStyleTableRecord
  2
ITALICT
 70
     0
 40
8.0
 41
1.0
 50
0.0
 71
     0
 42
8.0
  3
italict
  4

  0
STYLE
  5
DEE
100
AcDbSymbolTableRecord
100
AcDbTextStyleTableRecord
  2
ROMANS
 70
     0
 40
1.5
 41
1.0
 50
0.0
 71
     0
 42
1.5
  3
romans.shx
  4

  0
STYLE
  5
EB1
100
AcDbSymbolTableRecord
100
AcDbTextStyleTableRecord
  2
ROMAND
 70
     0
 40
1.5
 41
1.0
 50
0.0
 71
     0
 42
1.5
  3
ROMAND.SHX
  4

  0
STYLE
  5
EB2
100
AcDbSymbolTableRecord
100
AcDbTextStyleTableRecord
  2
COUNTRYBLUEPRINT
 70
     0
 40
0.061059
 41
1.0
 50
0.0
 71
     0
 42
0.061059
  3
cobt____.pfb
  4

  0
ENDTAB
  0
TABLE
  2
VIEW
  5
6
100
AcDbSymbolTable
 70
     0
  0
ENDTAB
  0
TABLE
  2
UCS
  5
7
100
AcDbSymbolTable
 70
     0
  0
ENDTAB
  0
TABLE
  2
APPID
  5
9
100
AcDbSymbolTable
 70
     1
  0
APPID
  5
10
100
AcDbSymbolTableRecord
100
AcDbRegAppTableRecord
  2
ACAD
 70
     0
  0
ENDTAB
  0
TABLE
  2
DIMSTYLE
  5
A
100
AcDbSymbolTable
 70
     1
  0
DIMSTYLE
105
DE2
100
AcDbSymbolTableRecord
100
AcDbDimStyleTableRecord
  2
STANDARD
 70
     0
  3

  4

  5

  6

  7

 40
1.0
 41
0.18
 42
0.0625
 43
0.38
 44
0.18
 45
0.0
 46
0.0
 47
0.0
 48
0.0
140
0.18
141
0.09
142
0.0
143
25.4
144
1.0
145
0.0
146
1.0
147
0.09
 71
     0
 72
     0
 73
     1
 74
     1
 75
     0
 76
     0
 77
     0
 78
     0
170
     0
171
     2
172
     0
173
     0
174
     0
175
     0
176
     0
177
     0
178
     0
270
     2
271
     4
272
     4
273
     2
274
     2
340
F
275
     0
280
     0
281
     0
282
     0
283
     1
284
     0
285
     0
286
     0
287
     3
288
     0
  0
ENDTAB
  0
TABLE
  2
BLOCK_RECORD
  5
1
100
AcDbSymbolTable
 70
     0
  0
BLOCK_RECORD
  5
17
100
AcDbSymbolTableRecord
100
AcDbBlockTableRecord
  2
*MODEL_SPACE
  0
BLOCK_RECORD
  5
14
100
AcDbSymbolTableRecord
100
AcDbBlockTableRecord
  2
*PAPER_SPACE
  0
ENDTAB
  0
ENDSEC
  0
SECTION
  2
BLOCKS
  0
BLOCK
  5
30
100
AcDbEntity
  8
0
100
AcDbBlockBegin
  2
*MODEL_SPACE
 70
     0
 10
0.0
 20
0.0
 30
0.0
  3
*MODEL_SPACE
  1

  0
ENDBLK
  5
31
100
AcDbEntity
  8
0
100
AcDbBlockEnd
  0
BLOCK
  5
2E
100
AcDbEntity
 67
     1
  8
0
100
AcDbBlockBegin
  2
*PAPER_SPACE
 70
     0
 10
0.0
 20
0.0
 30
0.0
  3
*PAPER_SPACE
  1

  0
ENDBLK
  5
2F
100
AcDbEntity
 67
     1
  8
0
100
AcDbBlockEnd
  0
ENDSEC
  0
SECTION
  2
ENTITIES
  0
ARC
  5
8CC
100
AcDbEntity
  8
OBJECT
100
AcDbCircle
 10
569.916788
 20
126.734884
 30
0.0
 40
39.0
100
AcDbArc
 50
133.813061
 51
46.186939
  0
LINE
  5
8CD
100
AcDbEntity
  8
CENTER
100
AcDbLine
 10
527.916788
 20
126.734884
 30
0.0
 11
611.916788
 21
126.734884
 31
0.0
  0
LINE
  5
8CE
100
AcDbEntity
  8
OBJECT
100
AcDbLine
 10
545.916788
 20
150.649264
 30
0.0
 11
593.916788
 21
150.649264
 31
0.0
  0
LINE
  5
8CF
100
AcDbEntity
  8
CENTER
100
AcDbLine
 10
569.916788
 20
84.734884
 30
0.0
 11
569.916788
 21
204.649264
 31
0.0
  0
LINE
  5
8D0
100
AcDbEntity
  8
CENTER
100
AcDbLine
 10
539.916788
 20
174.649264
 30
0.0
 11
599.916788
 21
174.649264
 31
0.0
  0
ARC
  5
8D1
100
AcDbEntity
  8
OBJECT
100
AcDbCircle
 10
569.916788
 20
174.649264
 30
0.0
 40
24.0
100
AcDbArc
 50
0.0
 51
180.0
  0
ARC
  5
8D2
100
AcDbEntity
  8
OBJECT
100
AcDbCircle
 10
569.916788
 20
174.649264
 30
0.0
 40
27.0
100
AcDbArc
 50
0.0
 51
180.0
  0
LINE
  5
8D3
100
AcDbEntity
  8
OBJECT
100
AcDbLine
 10
542.916788
 20
174.649264
 30
0.0
 11
542.916788
 21
147.649264
 31
0.0
  0
LINE
  5
8D4
100
AcDbEntity
  8
OBJECT
100
AcDbLine
 10
596.916788
 20
174.649264
 30
0.0
 11
596.916788
 21
147.649264
 31
0.0
  0
LINE
  5
8D5
100
AcDbEntity
  8
OBJECT
100
AcDbLine
 10
545.916788
 20
174.649264
 30
0.0
 11
545.916788
 21
150.649264
 31
0.0
  0
LINE
  5
8D6
100
AcDbEntity
  8
OBJECT
100
AcDbLine
 10
593.916788
 20
174.649264
 30
0.0
 11
593.916788
 21
150.649264
 31
0.0
  0
LINE
  5
8D8
100
AcDbEntity
  8
CENTER
100
AcDbLine
 10
539.916788
 20
2.623705
 30
0.0
 11
599.916788
 21
2.623705
 31
0.0
  0
LINE
  5
8D9
100
AcDbEntity
  8
CENTER
100
AcDbLine
 10
569.916788
 20
-87.290675
 30
0.0
 11
569.916788
 21
32.623705
 31
0.0
  0
ARC
  5
8DA
100
AcDbEntity
  8
OBJECT
100
AcDbCircle
 10
569.916788
 20
-45.290675
 30
0.0
 40
36.0
100
AcDbArc
 50
123.918395
 51
55.840605
  0
ARC
  5
8DB
100
AcDbEntity
  8
OBJECT
100
AcDbCircle
 10
569.916788
 20
-45.290675
 30
0.0
 40
39.0
100
AcDbArc
 50
124.289313
 51
55.710687
  0
LINE
  5
8DC
100
AcDbEntity
  8
CENTER
100
AcDbLine
 10
527.916788
 20
-45.290675
 30
0.0
 11
611.916788
 21
-45.290675
 31
0.0
  0
CIRCLE
  5
8DD
100
AcDbEntity
  8
OBJECT
100
AcDbCircle
 10
569.916788
 20
2.623705
 30
0.0
 40
24.0
  0
ARC
  5
8DE
100
AcDbEntity
  8
OBJECT
100
AcDbCircle
 10
569.916788
 20
2.623705
 30
0.0
 40
27.0
100
AcDbArc
 50
324.464886
 51
215.535114
  0
ARC
  5
8DF
100
AcDbEntity
  8
OBJECT
100
AcDbCircle
 10
569.916788
 20
126.734884
 30
0.0
 40
36.05
100
AcDbArc
 50
138.861428
 51
41.499649
  0
ARC
  5
8F9
100
AcDbEntity
  8
OBJECT
100
AcDbCircle
 10
569.916788
 20
126.734884
 30
0.0
 40
36.2
100
AcDbArc
 50
138.590378
 51
41.767294
  0
ARC
  5
8FA
100
AcDbEntity
  8
OBJECT
100
AcDbCircle
 10
569.916788
 20
126.734884
 30
0.0
 40
39.15
100
AcDbArc
 50
133.90674
 51
46.09326
  0
LINE
  5
8FB
100
AcDbEntity
  8
OBJECT
100
AcDbLine
 10
545.766788
 20
150.499264
 30
0.0
 11
594.066788
 21
150.499264
 31
0.0
  0
LINE
  5
8FC
100
AcDbEntity
  8
OBJECT
100
AcDbLine
 10
545.766788
 20
174.649264
 30
0.0
 11
545.766788
 21
150.499264
 31
0.0
  0
LINE
  5
8FD
100
AcDbEntity
  8
OBJECT
100
AcDbLine
 10
542.766788
 20
174.649264
 30
0.0
 11
542.766788
 21
147.499264
 31
0.0
  0
ARC
  5
8FE
100
AcDbEntity
  8
OBJECT
100
AcDbCircle
 10
569.916788
 20
174.649264
 30
0.0
 40
27.15
100
AcDbArc
 50
0.0
 51
180.0
  0
ARC
  5
8FF
100
AcDbEntity
  8
OBJECT
100
AcDbCircle
 10
569.916788
 20
174.649264
 30
0.0
 40
24.15
100
AcDbArc
 50
0.0
 51
180.0
  0
LINE
  5
900
100
AcDbEntity
  8
OBJECT
100
AcDbLine
 10
594.066788
 20
174.649264
 30
0.0
 11
594.066788
 21
150.499264
 31
0.0
  0
LINE
  5
901
100
AcDbEntity
  8
OBJECT
100
AcDbLine
 10
597.066788
 20
174.649264
 30
0.0
 11
597.066788
 21
147.499264
 31
0.0
  0
LINE
  5
902
100
AcDbEntity
  8
DIM
100
AcDbLine
 10
545.766788
 20
153.701854
 30
0.0
 11
545.766788
 21
153.50016
 31
0.0
  0
LINE
  5
903
100
AcDbEntity
  8
DIM
100
AcDbLine
 10
594.066788
 20
153.701854
 30
0.0
 11
594.066788
 21
153.50016
 31
0.0
  0
CIRCLE
  5
904
100
AcDbEntity
  8
OBJECT
100
AcDbCircle
 10
569.916788
 20
2.623705
 30
0.0
 40
24.15
  0
ARC
  5
905
100
AcDbEntity
  8
OBJECT
100
AcDbCircle
 10
569.916788
 20
2.623705
 30
0.0
 40
27.15
100
AcDbArc
 50
324.787748
 51
215.212252
  0
ARC
  5
906
100
AcDbEntity
  8
OBJECT
100
AcDbCircle
 10
569.916788
 20
-45.290675
 30
0.0
 40
39.15
100
AcDbArc
 50
124.513023
 51
55.486977
  0
ARC
  5
907
100
AcDbEntity
  8
OBJECT
100
AcDbCircle
 10
569.916788
 20
-45.290675
 30
0.0
 40
36.15
100
AcDbArc
 50
123.951157
 51
55.809043
  0
LINE
  5
908
100
AcDbEntity
  8
DIM
100
AcDbLine
 10
552.195095
 20
-13.782516
 30
0.0
 11
552.300319
 21
-13.895452
 31
0.0
  0
LINE
  5
909
100
AcDbEntity
  8
DIM
100
AcDbLine
 10
587.533256
 20
-13.895452
 30
0.0
 11
587.638481
 21
-13.782516
 31
0.0
  0
TEXT
  5
DB0
100
AcDbEntity
  8
HATCH
100
AcDbText
 10
514.581694
 20
273.347795
 30
0.0
 40
4.21875
  1
vault enclosures are available as individual units; attached to a wet well to create an
  7
ROMANT
100
AcDbText
  0
TEXT
  5
DB1
100
AcDbEntity
  8
HATCH
100
AcDbText
 10
514.581694
 20
287.008509
 30
0.0
 40
4.21875
  1
Fiberglass valve vault enclosures by TOPP Industries are designed to isolate valves, 
  7
ROMANT
100
AcDbText
  0
TEXT
  5
DB2
100
AcDbEntity
  8
HATCH
100
AcDbText
 10
514.581694
 20
280.178152
 30
0.0
 40
4.21875
  1
controls, and service personnel from the wet well sewage chamber.  Fiberglass valve 
  7
ROMANT
100
AcDbText
  0
TEXT
  5
DB3
100
AcDbEntity
  8
HATCH
100
AcDbText
 10
514.581694
 20
266.347795
 30
0.0
 40
4.21875
  1
integrated unit; or as a pre-fabricated lift station complete with piping, valves, 
  7
ROMANT
100
AcDbText
  0
TEXT
  5
DB4
100
AcDbEntity
  8
HATCH
100
AcDbText
 10
514.581694
 20
259.347795
 30
0.0
 40
4.21875
  1
accessories and guide rail system.
  7
ROMANT
100
AcDbText
  0
TEXT
  5
DBB
100
AcDbEntity
  8
HATCH
100
AcDbText
 10
627.099201
 20
94.453067
 30
0.0
 40
4.21875
  1
Flat wall allows for the wide spread of 
  7
ROMANT
100
AcDbText
  0
TEXT
  5
DBC
100
AcDbEntity
  8
HATCH
100
AcDbText
 10
627.099201
 20
101.283424
 30
0.0
 40
4.21875
  1
Designed for 3" and 4" piping systems. 
  7
ROMANT
100
AcDbText
  0
TEXT
  5
DBD
100
AcDbEntity
  8
HATCH
100
AcDbText
 10
627.099201
 20
87.62271
 30
0.0
 40
4.21875
  1
duplex piping systems.
  7
ROMANT
100
AcDbText
  0
TEXT
  5
DBE
100
AcDbEntity
  8
HATCH
100
AcDbText
 10
625.966526
 20
182.355745
 30
0.0
 40
4.5
  1
WET WELL WITH STANDARD 48" FLAT WALL VALVE VAULT
  7
ITALICT
100
AcDbText
  0
LINE
  5
DBF
100
AcDbEntity
  8
HATCH
100
AcDbLine
 10
625.747956
 20
181.095354
 30
0.0
 11
847.882604
 21
181.095354
 31
0.0
  0
TEXT
  5
DC0
100
AcDbEntity
  8
HATCH
100
AcDbText
 10
627.099201
 20
138.966953
 30
0.0
 40
4.21875
  1
Wet well:    36",42",48",60" or 72" inside diameter
  7
ROMANT
100
AcDbText
  0
LINE
  5
DC1
100
AcDbEntity
  8
HATCH
100
AcDbLine
 10
610.607207
 20
140.39269
 30
0.0
 11
625.045026
 21
140.39269
 31
0.0
  0
LINE
  5
DC2
100
AcDbEntity
  8
HATCH
100
AcDbLine
 10
597.066788
 20
160.739393
 30
0.0
 11
625.045026
 21
160.739393
 31
0.0
  0
TEXT
  5
DC3
100
AcDbEntity
  8
HATCH
100
AcDbText
 10
627.099201
 20
158.453029
 30
0.0
 40
4.21875
  1
Valve Vault:    
  7
ROMANT
100
AcDbText
  0
TEXT
  5
DC5
100
AcDbEntity
  8
HATCH
100
AcDbText
 10
675.777051
 20
158.157104
 30
0.0
 40
4.21875
  1
48" diameter x 48" flat wall x 
  7
ROMANT
100
AcDbText
  0
SOLID
  5
DC6
100
AcDbEntity
  8
HATCH
100
AcDbTrace
 10
610.607207
 20
139.726023
 30
0.0
 11
610.607207
 21
141.059356
 31
0.0
 12
606.607207
 22
140.39269
 32
0.0
 13
606.607207
 23
140.39269
 33
0.0
  0
SOLID
  5
DC7
100
AcDbEntity
  8
HATCH
100
AcDbTrace
 10
601.066788
 20
160.072727
 30
0.0
 11
601.066788
 21
161.40606
 31
0.0
 12
597.066788
 22
160.739393
 32
0.0
 13
597.066788
 23
160.739393
 33
0.0
  0
ARC
  5
DC8
100
AcDbEntity
  8
HATCH
  6
HIDDEN
 62
     1
100
AcDbCircle
 10
569.916788
 20
126.734884
 30
0.0
 40
36.05
100
AcDbArc
 50
47.940428
 51
132.059572
  0
LINE
  5
DC9
100
AcDbEntity
  8
OBJECT
100
AcDbLine
 10
542.916788
 20
147.649264
 30
0.0
 11
596.916788
 21
147.649264
 31
0.0
  0
LINE
  5
DCA
100
AcDbEntity
  8
OBJECT
100
AcDbLine
 10
542.766788
 20
147.499264
 30
0.0
 11
597.066788
 21
147.499264
 31
0.0
  0
TEXT
  5
DCB
100
AcDbEntity
  8
HATCH
100
AcDbText
 10
675.777051
 20
150.892895
 30
0.0
 40
4.21875
  1
48", 60" or 72" deep
  7
ROMANT
100
AcDbText
  0
TEXT
  5
DCC
100
AcDbEntity
  8
HATCH
100
AcDbText
 10
627.099201
 20
-23.926322
 30
0.0
 40
4.21875
  1
Wet well:    36",42",48",60" or 72" inside diameter
  7
ROMANT
100
AcDbText
  0
TEXT
  5
DCD
100
AcDbEntity
  8
HATCH
100
AcDbText
 10
627.099201
 20
-66.538637
 30
0.0
 40
4.21875
  1
for greater wet well capacity.
  7
ROMANT
100
AcDbText
  0
TEXT
  5
DCE
100
AcDbEntity
  8
HATCH
100
AcDbText
 10
627.099201
 20
-59.70828
 30
0.0
 40
4.21875
  1
discharge levels.  Bottom portion can be opened
  7
ROMANT
100
AcDbText
  0
TEXT
  5
DCF
100
AcDbEntity
  8
HATCH
100
AcDbText
 10
627.099201
 20
-52.877923
 30
0.0
 40
4.21875
  1
Designed for any piping system requiring deep
  7
ROMANT
100
AcDbText
  0
LINE
  5
DD0
100
AcDbEntity
  8
HATCH
100
AcDbLine
 10
625.747956
 20
18.202078
 30
0.0
 11
794.281685
 21
18.202078
 31
0.0
  0
TEXT
  5
DD1
100
AcDbEntity
  8
HATCH
100
AcDbText
 10
625.966526
 20
19.462469
 30
0.0
 40
4.5
  1
WET WELL WITH CYLINDRICAL VALVE VAULT
  7
ITALICT
100
AcDbText
  0
LINE
  5
DD2
100
AcDbEntity
  8
HATCH
100
AcDbLine
 10
601.7497
 20
-22.500586
 30
0.0
 11
625.045026
 21
-22.500586
 31
0.0
  0
LINE
  5
DD3
100
AcDbEntity
  8
HATCH
100
AcDbLine
 10
597.066788
 20
-2.153882
 30
0.0
 11
625.045026
 21
-2.153882
 31
0.0
  0
TEXT
  5
DD4
100
AcDbEntity
  8
HATCH
100
AcDbText
 10
627.099201
 20
-4.440246
 30
0.0
 40
4.21875
  1
Valve Vault:    
  7
ROMANT
100
AcDbText
  0
TEXT
  5
DD6
100
AcDbEntity
  8
HATCH
100
AcDbText
 10
675.355114
 20
-4.736171
 30
0.0
 40
4.21875
  1
36", 42", 48", 60" or 72" inside diameter
  7
ROMANT
100
AcDbText
  0
SOLID
  5
DD8
100
AcDbEntity
  8
HATCH
100
AcDbTrace
 10
601.066788
 20
-2.820549
 30
0.0
 11
601.066788
 21
-1.487216
 31
0.0
 12
597.066788
 22
-2.153882
 32
0.0
 13
597.066788
 23
-2.153882
 33
0.0
  0
SOLID
  5
DD9
100
AcDbEntity
  8
HATCH
100
AcDbTrace
 10
605.7497
 20
-23.167252
 30
0.0
 11
605.7497
 21
-21.833919
 31
0.0
 12
601.7497
 22
-22.500586
 32
0.0
 13
601.7497
 23
-22.500586
 33
0.0
  0
ARC
  5
DDA
100
AcDbEntity
  8
OBJECT
  6
HIDDEN
 62
     1
100
AcDbCircle
 10
569.916788
 20
-45.290675
 30
0.0
 40
36.0
100
AcDbArc
 50
60.702373
 51
119.297627
  0
ARC
  5
DDB
100
AcDbEntity
  8
OBJECT
100
AcDbCircle
 10
569.916788
 20
2.623705
 30
0.0
 40
27.15
100
AcDbArc
 50
215.528839
 51
324.471161
  0
ARC
  5
DDC
100
AcDbEntity
  8
OBJECT
100
AcDbCircle
 10
569.916788
 20
2.623705
 30
0.0
 40
27.0
100
AcDbArc
 50
215.535114
 51
324.464886
  0
TEXT
  5
DDD
100
AcDbEntity
  8
HATCH
100
AcDbText
 10
635.067548
 20
-129.234979
 30
0.0
 40
4.21875
  1
One piece steel or aluminum hinged
  7
ROMANT
100
AcDbText
  0
TEXT
  5
DDE
100
AcDbEntity
  8
HATCH
100
AcDbText
 10
635.067548
 20
-136.065336
 30
0.0
 40
4.21875
  1
and lockable covers are available
  7
ROMANT
100
AcDbText
  0
TEXT
  5
DDF
100
AcDbEntity
  8
HATCH
100
AcDbText
 10
631.987314
 20
-121.709869
 30
0.0
 40
4.5
  1
NOTE:
  7
ITALICT
100
AcDbText
  0
TEXT
  5
DE0
100
AcDbEntity
  8
HATCH
100
AcDbText
 10
635.067548
 20
-142.317234
 30
0.0
 40
4.21875
  1
to accommodate each style.
  7
ROMANT
100
AcDbText
  0
LWPOLYLINE
  5
F97
100
AcDbEntity
  8
BORDER
 62
     5
100
AcDbPolyline
 90
        6
 70
     0
 43
1.907854
 10
474.861832
 20
-145.212092
 10
474.861832
 20
305.662861
 42
-0.414214
 10
479.144952
 20
309.945981
 10
858.865304
 20
309.945981
 42
-0.414214
 10
863.148424
 20
305.662861
 10
863.148424
 20
-145.212092
  0
LWPOLYLINE
  5
F98
100
AcDbEntity
  8
BORDER
 62
     5
100
AcDbPolyline
 90
        2
 70
     0
 43
1.07078
 10
474.861832
 20
-145.212092
 10
474.861832
 20
305.662861
  0
LINE
  5
F99
100
AcDbEntity
  8
LIMITS
 62
     7
100
AcDbLine
 10
466.295593
 20
318.51222
 30
0.0
 11
466.295593
 21
-206.147753
 31
0.0
  0
LWPOLYLINE
  5
F9A
100
AcDbEntity
  8
BORDER
 62
     5
100
AcDbPolyline
 90
        2
 70
     0
 43
1.07078
 10
863.148424
 20
-145.212092
 10
863.148424
 20
305.662861
  0
LINE
  5
F9B
100
AcDbEntity
  8
LIMITS
 62
     7
100
AcDbLine
 10
871.714663
 20
-206.147753
 30
0.0
 11
871.714663
 21
318.51222
 31
0.0
  0
LINE
  5
F9C
100
AcDbEntity
  8
LIMITS
100
AcDbLine
 10
871.714663
 20
307.826604
 30
0.0
 11
871.714663
 21
-206.147753
 31
0.0
  0
LINE
  5
F9D
100
AcDbEntity
  8
LIMITS
100
AcDbLine
 10
871.714663
 20
-206.147753
 30
0.0
 11
871.714663
 21
307.826604
 31
0.0
  0
LWPOLYLINE
  5
F9E
100
AcDbEntity
  8
BORDER
 62
     5
100
AcDbPolyline
 90
        2
 70
     0
 43
2.67695
 10
793.54773
 20
-147.254858
 42
0.414214
 10
782.83993
 20
-157.962657
 42
-0.560527
  0
LWPOLYLINE
  5
F9F
100
AcDbEntity
  8
BORDER
 62
     5
100
AcDbPolyline
 90
        2
 70
     0
 43
2.67695
 10
852.440625
 20
-195.439954
 10
485.569631
 20
-195.439954
  0
LINE
  5
FA0
100
AcDbEntity
  8
LIMITS
 62
     7
100
AcDbLine
 10
466.295593
 20
-206.147753
 30
0.0
 11
871.714663
 21
-206.147753
 31
0.0
  0
LWPOLYLINE
  5
FA1
100
AcDbEntity
  8
BORDER
 62
     5
100
AcDbPolyline
 90
        2
 70
     0
 43
2.67695
 10
571.232024
 20
-147.254858
 10
766.778232
 20
-147.254858
  0
TEXT
  5
FA2
100
AcDbEntity
  8
BORDER
 62
     6
100
AcDbText
 10
588.077137
 20
-185.090105
 30
0.0
 40
2.041842
  1
Rochester, IN  46975
  7
ROMANC
100
AcDbText
  0
TEXT
  5
FA3
100
AcDbEntity
  8
BORDER
 62
     6
100
AcDbText
 10
569.642026
 20
-189.196667
 30
0.0
 40
2.041842
  1
Phone: 800/354-4534  Fax: 574/223-6106
  7
ROMANC
100
AcDbText
  0
LINE
  5
FA4
100
AcDbEntity
  8
BORDER
100
AcDbLine
 10
565.878124
 20
-164.972984
 30
0.0
 11
647.484532
 21
-164.972984
 31
0.0
  0
LINE
  5
FA5
100
AcDbEntity
  8
BORDER
100
AcDbLine
 10
565.878124
 20
-177.870346
 30
0.0
 11
692.174366
 21
-177.870346
 31
0.0
  0
LINE
  5
FA6
100
AcDbEntity
  8
BORDER
100
AcDbLine
 10
565.878124
 20
-174.024356
 30
0.0
 11
692.174366
 21
-174.024356
 31
0.0
  0
LINE
  5
FA7
100
AcDbEntity
  8
BORDER
100
AcDbLine
 10
571.232024
 20
-152.608758
 30
0.0
 11
692.174366
 21
-152.608758
 31
0.0
  0
LINE
  5
FA8
100
AcDbEntity
  8
BORDER
100
AcDbLine
 10
565.878124
 20
-190.086055
 30
0.0
 11
692.174366
 21
-190.086055
 31
0.0
  0
TEXT
  5
FA9
100
AcDbEntity
  8
BORDER
 62
     6
100
AcDbText
 10
579.284391
 20
-181.463979
 30
0.0
 40
2.041842
  1
Highway 25 North P.O. Box 420
  7
ROMANC
100
AcDbText
  0
ARC
  5
FAA
100
AcDbEntity
  8
BORDER
100
AcDbCircle
 10
519.839394
 20
-161.954409
 30
0.0
 40
1.607182
100
AcDbArc
 50
270.0
 51
90.0
  0
LINE
  5
FAB
100
AcDbEntity
  8
BORDER
100
AcDbLine
 10
520.131698
 20
-182.402163
 30
0.0
 11
521.653997
 21
-182.402163
 31
0.0
  0
LINE
  5
FAC
100
AcDbEntity
  8
BORDER
100
AcDbLine
 10
521.653997
 20
-180.144294
 30
0.0
 11
520.131698
 21
-180.144294
 31
0.0
  0
ELLIPSE
  5
FAD
102
{ACAD_REACTORS
330
FAE
102
}
100
AcDbEntity
  8
BORDER
100
AcDbEllipse
 10
516.417411
 20
-172.143141
 30
0.0
 11
0.0000000000000403
 21
5.980270503291716
 31
0.0
210
0.0
220
0.0
230
1.0
 40
0.93822
 41
0.0
 42
6.283185307179586
  0
HATCH
  5
FAE
100
AcDbEntity
  8
BORDER
100
AcDbHatch
 10
0.0
 20
0.0
 30
0.0
210
0.0
220
0.0
230
0.9999999999999998
  2
ANSI37
 70
     0
 71
     1
 91
        2
 92
        5
 93
        1
 72
     3
 10
516.417411
 20
-172.143141
 11
0.0
 21
5.980271
 40
0.93822
 50
0.0
 51
360.0
 73
     1
 97
        1
330
FAD
 92
       20
 93
        1
 72
     3
 10
516.417411
 20
-172.109066
 11
0.0
 21
5.36691
 40
0.683214
 50
0.0
 51
360.0
 73
     1
 97
        1
330
FCE
 75
     0
 76
     1
 52
0.0
 41
0.082951
 77
     0
 78
     2
 53
45.0
 43
471.629165
 44
-477.454483
 45
-0.0073318736633367
 46
0.0073318736633367
 79
     0
 53
135.0
 43
471.629165
 44
-477.454483
 45
-0.0073318736633367
 46
-0.0073318736633367
 79
     0
 47
0.027301
 98
        2
 10
512.381982
 20
-169.709067
 10
512.381982
 20
-169.709067
  0
LINE
  5
FAF
100
AcDbEntity
  8
BORDER
100
AcDbLine
 10
513.371218
 20
-165.042362
 30
0.0
 11
540.808211
 21
-165.042362
 31
0.0
  0
LINE
  5
FB0
100
AcDbEntity
  8
BORDER
100
AcDbLine
 10
488.257869
 20
-178.727682
 30
0.0
 11
542.074456
 21
-178.727682
 31
0.0
  0
LINE
  5
FB1
100
AcDbEntity
  8
BORDER
100
AcDbLine
 10
488.257869
 20
-178.727682
 30
0.0
 11
542.074456
 21
-178.727682
 31
0.0
  0
LWPOLYLINE
  5
FB2
100
AcDbEntity
  8
BORDER
 62
     5
100
AcDbPolyline
 90
        2
 70
     0
 43
2.67695
 10
485.569631
 20
-147.254858
 10
544.462526
 20
-147.254858
  0
LINE
  5
FB3
100
AcDbEntity
  8
BORDER
100
AcDbLine
 10
485.569631
 20
-152.608758
 30
0.0
 11
544.462526
 21
-152.608758
 31
0.0
  0
LINE
  5
FB4
100
AcDbEntity
  8
BORDER
100
AcDbLine
 10
485.569631
 20
-190.086055
 30
0.0
 11
549.816426
 21
-190.086055
 31
0.0
  0
LWPOLYLINE
  5
FB5
100
AcDbEntity
  8
BORDER
 62
     5
100
AcDbPolyline
 90
        2
 70
     0
 43
2.67695
 10
485.569631
 20
-195.439954
 42
-0.414214
 10
474.861832
 20
-184.732155
 42
0.560527
  0
LWPOLYLINE
  5
FB6
100
AcDbEntity
  8
BORDER
 62
     5
100
AcDbPolyline
 90
        2
 70
     0
 43
2.67695
 10
485.569631
 20
-147.254858
 42
0.414214
 10
474.861832
 20
-157.962657
 42
-0.560527
  0
LWPOLYLINE
  5
FB7
100
AcDbEntity
  8
BORDER
 62
     5
100
AcDbPolyline
 90
        2
 70
     0
 43
2.67695
 10
474.861832
 20
-157.962657
 10
474.861832
 20
-184.732155
  0
ARC
  5
FB8
100
AcDbEntity
  8
BORDER
100
AcDbCircle
 10
485.569631
 20
-157.962657
 30
0.0
 40
5.3539
100
AcDbArc
 50
90.0
 51
180.0
  0
LINE
  5
FB9
102
{ACAD_REACTORS
330
FBF
102
}
100
AcDbEntity
  8
BORDER
100
AcDbLine
 10
497.080956
 20
-159.643582
 30
0.0
 11
499.486071
 21
-159.643582
 31
0.0
  0
ARC
  5
FBA
100
AcDbEntity
  8
BORDER
100
AcDbCircle
 10
499.121293
 20
-182.311411
 30
0.0
 40
2.167677
100
AcDbArc
 50
44.321228
 51
180.91508
  0
ARC
  5
FBB
102
{ACAD_REACTORS
330
FBF
102
}
100
AcDbEntity
  8
BORDER
100
AcDbCircle
 10
496.753556
 20
-174.682306
 30
0.0
 40
2.732515
100
AcDbArc
 50
270.0
 51
0.0
  0
LINE
  5
FBC
102
{ACAD_REACTORS
330
FBF
102
}
100
AcDbEntity
  8
BORDER
100
AcDbLine
 10
495.873559
 20
-177.984788
 30
0.0
 11
507.821094
 21
-177.984788
 31
0.0
  0
ARC
  5
FBD
100
AcDbEntity
  8
BORDER
100
AcDbCircle
 10
498.964764
 20
-182.531236
 30
0.0
 40
2.019383
100
AcDbArc
 50
174.737783
 51
327.723969
  0
LINE
  5
FBE
102
{ACAD_REACTORS
330
FBF
102
}
100
AcDbEntity
  8
BORDER
100
AcDbLine
 10
491.056878
 20
-158.250328
 30
0.0
 11
512.637775
 21
-158.250328
 31
0.0
  0
HATCH
  5
FBF
100
AcDbEntity
  8
BORDER
100
AcDbHatch
 10
0.0
 20
0.0
 30
0.0
210
0.0
220
0.0
230
0.9999999999999998
  2
ANSI37
 70
     0
 71
     1
 91
        1
 92
        7
 72
     1
 73
     1
 93
       18
 10
499.4860705889096
 20
-174.6823058754355
 42
-0.414213562373074
 10
496.7535556953247
 20
-177.4148207690201
 42
0.0
 10
495.8735594690345
 20
-177.4148207690201
 42
0.0
 10
495.8735594690344
 20
-177.9847880050307
 42
0.0
 10
507.8210939082961
 20
-177.9847880050307
 42
0.0
 10
507.8210939082959
 20
-177.4148207690201
 42
0.0
 10
506.941097682004
 20
-177.4148207690201
 42
-0.4142135623730586
 10
504.2085827884196
 20
-174.6823058754353
 42
0.0
 10
504.2085827884196
 20
-159.6435815555983
 42
0.0
 10
506.6136974401398
 20
-159.6435815555983
 42
-0.4138200196737633
 10
512.0673746497836
 20
-165.089934893285
 42
0.0
 10
512.6377754014644
 20
-165.089934893285
 42
0.0
 10
512.6377754014657
 20
-158.2503280611687
 42
0.0
 10
491.0568779758645
 20
-158.2503280611687
 42
0.0
 10
491.0568779758645
 20
-165.089934893285
 42
0.0
 10
491.6272787275464
 20
-165.089934893285
 42
-0.4138200196737636
 10
497.0809559371903
 20
-159.6435815555983
 42
0.0
 10
499.4860705889096
 20
-159.6435815555983
 42
0.0
 97
       18
330
FE0
330
FDD
330
FE4
330
FE8
330
FBE
330
FCC
330
FCB
330
FCA
330
FB9
330
FDE
330
FBB
330
FC8
330
FC7
330
FBC
330
FD4
330
FD0
330
FCD
330
FDF
 75
     0
 76
     1
 52
0.0
 41
0.082951
 77
     0
 78
     2
 53
45.0
 43
471.629165
 44
-477.454483
 45
-0.0073318736633367
 46
0.0073318736633367
 79
     0
 53
135.0
 43
471.629165
 44
-477.454483
 45
-0.0073318736633367
 46
-0.0073318736633367
 79
     0
 47
0.049862
 98
        1
 10
501.267774
 20
-167.454684
  0
LINE
  5
FC0
100
AcDbEntity
  8
BORDER
100
AcDbLine
 10
480.215732
 20
-184.732155
 30
0.0
 11
480.215732
 21
-157.962657
 31
0.0
  0
ARC
  5
FC1
100
AcDbEntity
  8
BORDER
100
AcDbCircle
 10
485.569631
 20
-184.732155
 30
0.0
 40
5.3539
100
AcDbArc
 50
180.0
 51
270.0
  0
LINE
  5
FC2
100
AcDbEntity
  8
BORDER
100
AcDbLine
 10
495.921052
 20
-184.547767
 30
0.0
 11
492.547103
 21
-180.144294
 31
0.0
  0
LINE
  5
FC3
100
AcDbEntity
  8
BORDER
100
AcDbLine
 10
489.717455
 20
-180.144294
 30
0.0
 11
491.520811
 21
-180.144294
 31
0.0
  0
LINE
  5
FC4
100
AcDbEntity
  8
BORDER
100
AcDbLine
 10
489.717455
 20
-184.547767
 30
0.0
 11
491.520811
 21
-184.547767
 31
0.0
  0
LINE
  5
FC5
100
AcDbEntity
  8
BORDER
100
AcDbLine
 10
490.619133
 20
-180.144294
 30
0.0
 11
490.619133
 21
-184.547767
 31
0.0
  0
LINE
  5
FC6
100
AcDbEntity
  8
BORDER
100
AcDbLine
 10
492.547103
 20
-180.144294
 30
0.0
 11
492.547103
 21
-184.547767
 31
0.0
  0
LINE
  5
FC7
102
{ACAD_REACTORS
330
FBF
102
}
100
AcDbEntity
  8
BORDER
100
AcDbLine
 10
495.873559
 20
-177.414821
 30
0.0
 11
495.873559
 21
-177.984788
 31
0.0
  0
LINE
  5
FC8
102
{ACAD_REACTORS
330
FBF
102
}
100
AcDbEntity
  8
BORDER
100
AcDbLine
 10
495.873559
 20
-177.414821
 30
0.0
 11
496.753556
 21
-177.414821
 31
0.0
  0
LINE
  5
FC9
100
AcDbEntity
  8
BORDER
100
AcDbLine
 10
495.921052
 20
-180.144294
 30
0.0
 11
495.921052
 21
-184.547767
 31
0.0
  0
ARC
  5
FCA
102
{ACAD_REACTORS
330
FBF
102
}
100
AcDbEntity
  8
BORDER
100
AcDbCircle
 10
497.080956
 20
-165.097264
 30
0.0
 40
5.453682
100
AcDbArc
 50
90.0
 51
179.923004
  0
LINE
  5
FCB
102
{ACAD_REACTORS
330
FBF
102
}
100
AcDbEntity
  8
BORDER
100
AcDbLine
 10
491.056878
 20
-165.089935
 30
0.0
 11
491.627274
 21
-165.089935
 31
0.0
  0
LINE
  5
FCC
102
{ACAD_REACTORS
330
FBF
102
}
100
AcDbEntity
  8
BORDER
100
AcDbLine
 10
491.056878
 20
-165.089935
 30
0.0
 11
491.056878
 21
-158.250328
 31
0.0
  0
ARC
  5
FCD
102
{ACAD_REACTORS
330
FBF
102
}
100
AcDbEntity
  8
BORDER
100
AcDbCircle
 10
506.941098
 20
-174.682306
 30
0.0
 40
2.732515
100
AcDbArc
 50
180.0
 51
270.0
  0
ELLIPSE
  5
FCE
102
{ACAD_REACTORS
330
FAE
102
}
100
AcDbEntity
  8
BORDER
100
AcDbEllipse
 10
516.417411
 20
-172.109066
 30
0.0
 11
0.0000000000000403
 21
5.366909643112299
 31
0.0
210
0.0
220
0.0
230
1.0
 40
0.683214
 41
0.0
 42
6.283185307179586
  0
SPLINE
  5
FCF
100
AcDbEntity
  8
BORDER
100
AcDbSpline
210
0.0
220
0.0
230
1.0
 70
    11
 71
     3
 72
    24
 73
    20
 74
     0
 42
0.0000001
 43
0.0000001
 40
0.0
 40
0.0
 40
0.0
 40
0.0
 40
0.474866629778075
 40
0.474866629778075
 40
1.277791044886493
 40
1.277791044886493
 40
2.080715459994911
 40
2.080715459994911
 40
2.883639875103329
 40
2.883639875103329
 40
3.686564290211747
 40
3.686564290211747
 40
4.489488705320165
 40
4.489488705320165
 40
5.292413120428583
 40
5.292413120428583
 40
6.095337535537001
 40
6.095337535537001
 40
6.283185307179586
 40
6.283185307179586
 40
6.283185307179586
 40
6.283185307179586
 10
503.5597245914344
 20
-180.0845693012297
 30
0.0
 10
503.2028316037553
 20
-180.0845693012297
 30
0.0
 10
502.8462392443791
 20
-180.1711396889235
 30
0.0
 10
501.9922000812489
 20
-180.6115957710774
 30
0.0
 10
501.5755460226994
 20
-181.1134724717364
 30
0.0
 10
501.2270367072301
 20
-182.2723291245931
 30
0.0
 10
501.297498382956
 20
-182.9215449249368
 30
0.0
 10
501.886481086198
 20
-183.9780433327247
 30
0.0
 10
502.4010772415372
 20
-184.3782307505245
 30
0.0
 10
503.568026135802
 20
-184.6870834046078
 30
0.0
 10
504.2125175216146
 20
-184.5936516389962
 30
0.0
 10
505.2445177294712
 20
-183.9660621524711
 30
0.0
 10
505.6250966777201
 20
-183.4361517488305
 30
0.0
 10
505.8918289745588
 20
-182.2556622150135
 30
0.0
 10
505.7762099818798
 20
-181.6129880073659
 30
0.0
 10
505.1148923878359
 20
-180.6004565788833
 30
0.0
 10
504.5736048813878
 20
-180.2374057940106
 30
0.0
 10
503.8420811533474
 20
-180.0979105141958
 30
0.0
 10
503.700904342224
 20
-180.0845693012297
 30
0.0
 10
503.5597245914344
 20
-180.0845693012297
 30
0.0
  0
LINE
  5
FD0
102
{ACAD_REACTORS
330
FBF
102
}
100
AcDbEntity
  8
BORDER
100
AcDbLine
 10
507.821094
 20
-177.414821
 30
0.0
 11
506.941098
 21
-177.414821
 31
0.0
  0
LINE
  5
FD1
100
AcDbEntity
  8
BORDER
100
AcDbLine
 10
508.376616
 20
-180.144294
 30
0.0
 11
506.854317
 21
-180.144294
 31
0.0
  0
LINE
  5
FD2
100
AcDbEntity
  8
BORDER
100
AcDbLine
 10
506.854317
 20
-182.402163
 30
0.0
 11
508.376616
 21
-182.402163
 31
0.0
  0
ARC
  5
FD3
100
AcDbEntity
  8
BORDER
100
AcDbCircle
 10
508.376616
 20
-181.273228
 30
0.0
 40
1.128935
100
AcDbArc
 50
270.0
 51
90.0
  0
LINE
  5
FD4
102
{ACAD_REACTORS
330
FBF
102
}
100
AcDbEntity
  8
BORDER
100
AcDbLine
 10
507.821094
 20
-177.414821
 30
0.0
 11
507.821094
 21
-177.984788
 31
0.0
  0
LINE
  5
FD5
100
AcDbEntity
  8
BORDER
100
AcDbLine
 10
506.854317
 20
-180.144294
 30
0.0
 11
506.854317
 21
-184.547767
 31
0.0
  0
LINE
  5
FD6
100
AcDbEntity
  8
BORDER
100
AcDbLine
 10
508.05959
 20
-182.402163
 30
0.0
 11
509.807769
 21
-184.547767
 31
0.0
  0
SPLINE
  5
FD7
100
AcDbEntity
  8
BORDER
100
AcDbSpline
210
0.0
220
0.0
230
1.0
 70
    11
 71
     3
 72
    24
 73
    20
 74
     0
 42
0.0000001
 43
0.0000001
 40
0.0
 40
0.0
 40
0.0
 40
0.0
 40
0.474866629778075
 40
0.474866629778075
 40
1.277791044886493
 40
1.277791044886493
 40
2.080715459994911
 40
2.080715459994911
 40
2.883639875103329
 40
2.883639875103329
 40
3.686564290211747
 40
3.686564290211747
 40
4.489488705320165
 40
4.489488705320165
 40
5.292413120428583
 40
5.292413120428583
 40
6.095337535537001
 40
6.095337535537001
 40
6.283185307179586
 40
6.283185307179586
 40
6.283185307179586
 40
6.283185307179586
 10
516.6620465483706
 20
-180.0845693012297
 30
0.0
 10
516.3051535606905
 20
-180.0845693012297
 30
0.0
 10
515.9485612013147
 20
-180.1711396889235
 30
0.0
 10
515.0945220381845
 20
-180.6115957710774
 30
0.0
 10
514.6778679796357
 20
-181.1134724717364
 30
0.0
 10
514.3293586641668
 20
-182.2723291245931
 30
0.0
 10
514.3998203398925
 20
-182.9215449249368
 30
0.0
 10
514.9888030431334
 20
-183.9780433327247
 30
0.0
 10
515.5033991984728
 20
-184.3782307505245
 30
0.0
 10
516.6703480927378
 20
-184.6870834046078
 30
0.0
 10
517.3148394785503
 20
-184.5936516389962
 30
0.0
 10
518.3468396864068
 20
-183.9660621524711
 30
0.0
 10
518.7274186346553
 20
-183.4361517488305
 30
0.0
 10
518.9941509314958
 20
-182.2556622150135
 30
0.0
 10
518.8785319388166
 20
-181.6129880073659
 30
0.0
 10
518.2172143447726
 20
-180.6004565788833
 30
0.0
 10
517.6759268383232
 20
-180.2374057940106
 30
0.0
 10
516.9444031102828
 20
-180.0979105141958
 30
0.0
 10
516.8032262991608
 20
-180.0845693012297
 30
0.0
 10
516.6620465483706
 20
-180.0845693012297
 30
0.0
  0
ARC
  5
FD8
100
AcDbEntity
  8
BORDER
100
AcDbCircle
 10
512.648933
 20
-181.273228
 30
0.0
 40
1.128935
100
AcDbArc
 50
270.0
 51
90.0
  0
LINE
  5
FD9
100
AcDbEntity
  8
BORDER
100
AcDbLine
 10
511.506034
 20
-180.144294
 30
0.0
 11
511.506034
 21
-184.547767
 31
0.0
  0
LINE
  5
FDA
100
AcDbEntity
  8
BORDER
100
AcDbLine
 10
512.648933
 20
-180.144294
 30
0.0
 11
511.506034
 21
-180.144294
 31
0.0
  0
LINE
  5
FDB
100
AcDbEntity
  8
BORDER
100
AcDbLine
 10
511.506034
 20
-182.402163
 30
0.0
 11
512.648933
 21
-182.402163
 31
0.0
  0
LINE
  5
FDC
100
AcDbEntity
  8
BORDER
100
AcDbLine
 10
520.131698
 20
-180.144294
 30
0.0
 11
520.131698
 21
-184.547767
 31
0.0
  0
ARC
  5
FDD
102
{ACAD_REACTORS
330
FBF
102
}
100
AcDbEntity
  8
BORDER
100
AcDbCircle
 10
506.613697
 20
-165.097264
 30
0.0
 40
5.453682
100
AcDbArc
 50
0.076996
 51
90.0
  0
LINE
  5
FDE
102
{ACAD_REACTORS
330
FBF
102
}
100
AcDbEntity
  8
BORDER
100
AcDbLine
 10
499.486071
 20
-174.682306
 30
0.0
 11
499.486071
 21
-159.643582
 31
0.0
  0
LINE
  5
FDF
102
{ACAD_REACTORS
330
FBF
102
}
100
AcDbEntity
  8
BORDER
100
AcDbLine
 10
504.208583
 20
-174.682306
 30
0.0
 11
504.208583
 21
-159.643582
 31
0.0
  0
LINE
  5
FE0
102
{ACAD_REACTORS
330
FBF
102
}
100
AcDbEntity
  8
BORDER
100
AcDbLine
 10
506.613697
 20
-159.643582
 30
0.0
 11
504.208583
 21
-159.643582
 31
0.0
  0
LINE
  5
FE1
100
AcDbEntity
  8
BORDER
100
AcDbLine
 10
517.789136
 20
-163.561591
 30
0.0
 11
515.585859
 21
-160.280026
 31
0.0
  0
LINE
  5
FE2
100
AcDbEntity
  8
BORDER
100
AcDbLine
 10
513.636864
 20
-160.347227
 30
0.0
 11
514.131697
 21
-160.347227
 31
0.0
  0
LINE
  5
FE3
100
AcDbEntity
  8
BORDER
100
AcDbLine
 10
514.131697
 20
-160.347227
 30
0.0
 11
514.626529
 21
-160.347227
 31
0.0
  0
LINE
  5
FE4
102
{ACAD_REACTORS
330
FBF
102
}
100
AcDbEntity
  8
BORDER
100
AcDbLine
 10
512.637775
 20
-165.089935
 30
0.0
 11
512.06738
 21
-165.089935
 31
0.0
  0
LINE
  5
FE5
100
AcDbEntity
  8
BORDER
100
AcDbLine
 10
513.636864
 20
-163.561591
 30
0.0
 11
514.626529
 21
-163.561591
 31
0.0
  0
LINE
  5
FE6
100
AcDbEntity
  8
BORDER
100
AcDbLine
 10
514.131697
 20
-160.347227
 30
0.0
 11
514.131697
 21
-163.561591
 31
0.0
  0
LINE
  5
FE7
100
AcDbEntity
  8
BORDER
100
AcDbLine
 10
515.585859
 20
-160.280026
 30
0.0
 11
515.585859
 21
-163.561591
 31
0.0
  0
LINE
  5
FE8
102
{ACAD_REACTORS
330
FBF
102
}
100
AcDbEntity
  8
BORDER
100
AcDbLine
 10
512.637775
 20
-165.089935
 30
0.0
 11
512.637775
 21
-158.250328
 31
0.0
  0
LINE
  5
FE9
100
AcDbEntity
  8
BORDER
100
AcDbLine
 10
519.839394
 20
-160.347227
 30
0.0
 11
519.155168
 21
-160.347227
 31
0.0
  0
LINE
  5
FEA
100
AcDbEntity
  8
BORDER
100
AcDbLine
 10
519.155168
 20
-163.561591
 30
0.0
 11
519.839394
 21
-163.561591
 31
0.0
  0
LINE
  5
FEB
100
AcDbEntity
  8
BORDER
100
AcDbLine
 10
517.789136
 20
-160.347227
 30
0.0
 11
517.789136
 21
-163.561591
 31
0.0
  0
LINE
  5
FEC
100
AcDbEntity
  8
BORDER
100
AcDbLine
 10
519.155168
 20
-160.347227
 30
0.0
 11
519.155168
 21
-163.561591
 31
0.0
  0
ARC
  5
FED
100
AcDbEntity
  8
BORDER
100
AcDbCircle
 10
571.232024
 20
-157.962657
 30
0.0
 40
5.3539
100
AcDbArc
 50
90.0
 51
180.0
  0
LWPOLYLINE
  5
FEE
100
AcDbEntity
  8
BORDER
 62
     5
100
AcDbPolyline
 90
        2
 70
     0
 43
2.67695
 10
571.232024
 20
-147.254858
 42
0.414214
 10
560.524225
 20
-157.962657
 42
-0.560527
  0
ARC
  5
FEF
100
AcDbEntity
  8
BORDER
100
AcDbCircle
 10
544.462526
 20
-157.962657
 30
0.0
 40
5.3539
100
AcDbArc
 50
0.0
 51
90.0
  0
LWPOLYLINE
  5
FF0
100
AcDbEntity
  8
BORDER
 62
     5
100
AcDbPolyline
 90
        2
 70
     0
 43
2.67695
 10
544.462526
 20
-147.254858
 42
-0.414214
 10
555.170325
 20
-157.962657
 42
0.560527
  0
ARC
  5
FF1
102
{ACAD_REACTORS
330
FF3
102
}
100
AcDbEntity
  8
BORDER
100
AcDbCircle
 10
536.968212
 20
-176.468768
 30
0.0
 40
1.127957
100
AcDbArc
 50
180.0
 51
270.0
  0
ARC
  5
FF2
102
{ACAD_REACTORS
330
FF3
102
}
100
AcDbEntity
  8
BORDER
100
AcDbCircle
 10
533.116454
 20
-176.468768
 30
0.0
 40
1.127957
100
AcDbArc
 50
270.0
 51
360.0
  0
HATCH
  5
FF3
100
AcDbEntity
  8
BORDER
100
AcDbHatch
 10
0.0
 20
0.0
 30
0.0
210
0.0
220
0.0
230
0.9999999999999998
  2
ANSI37
 70
     0
 71
     1
 91
        2
 92
        7
 72
     1
 73
     1
 93
       16
 10
534.2444111613012
 20
-176.4687681164538
 42
-0.4142135623729169
 10
533.1164544319726
 20
-177.5967248457817
 42
0.0
 10
532.5944699115226
 20
-177.5967248457817
 42
0.0
 10
532.5944699115227
 20
-177.8940318173253
 42
0.0
 10
537.4901960423978
 20
-177.8940318173253
 42
0.0
 10
537.4901960423978
 20
-177.5967248457817
 42
0.0
 10
536.9682115219496
 20
-177.5967248457817
 42
-0.414213562373538
 10
535.8402547926192
 20
-176.4687681164531
 42
0.0
 10
535.8402547926192
 20
-172.5154902243607
 42
0.0609117558028052
 10
537.8147745305218
 20
-172.7587401514539
 42
0.4291497434352383
 10
541.3039932776873
 20
-169.6235094620729
 42
0.3916311771497442
 10
537.8880915427989
 20
-166.4249337779757
 42
0.0
 10
532.6029511035756
 20
-166.4249337779757
 42
0.0
 10
532.6029511035756
 20
-166.7397521705569
 42
0.0
 10
533.1164544319729
 20
-166.7397521705569
 42
-0.4142135623730065
 10
534.2444111613012
 20
-167.8677088998855
 42
0.0
 97
       16
330
1018
330
101C
330
101F
330
1020
330
101E
330
1022
330
FF2
330
1001
330
1000
330
1005
330
FFF
330
1004
330
FF1
330
1021
330
101B
330
1023
 92
       22
 72
     1
 73
     1
 93
        3
 10
535.8402547926192
 20
-167.2720873282977
 42
-0.5287425889418895
 10
539.383569352597
 20
-169.7586486866852
 42
-0.5439228899273151
 10
535.8402547926192
 20
-172.0830440281584
 42
0.0
 97
        3
330
1019
330
101A
330
101D
 75
     0
 76
     1
 52
0.0
 41
0.082951
 77
     0
 78
     2
 53
45.0
 43
471.629165
 44
-477.454483
 45
-0.0073318736633367
 46
0.0073318736633367
 79
     0
 53
135.0
 43
471.629165
 44
-477.454483
 45
-0.0073318736633367
 46
-0.0073318736633367
 79
     0
 47
0.027301
 98
        2
 10
534.909315
 20
-170.297876
 10
534.909315
 20
-170.297876
  0
LWPOLYLINE
  5
FF4
102
{ACAD_REACTORS
330
FF5
102
}
100
AcDbEntity
  8
BORDER
100
AcDbPolyline
 90
       17
 70
     0
 43
0.0
 10
528.184611
 20
-172.715291
 42
-0.060912
 10
526.210091
 20
-172.472041
 10
526.210091
 20
-176.425319
 42
0.414214
 10
527.338048
 20
-177.553275
 10
527.860033
 20
-177.553275
 10
527.860033
 20
-177.850582
 10
522.964307
 20
-177.850582
 10
522.964307
 20
-177.553275
 10
523.486291
 20
-177.553275
 42
0.414214
 10
524.614248
 20
-176.425319
 10
524.614248
 20
-167.824259
 42
0.414214
 10
523.486291
 20
-166.696303
 10
522.972788
 20
-166.696303
 10
522.972788
 20
-166.381484
 10
528.216503
 20
-166.381484
 42
-0.395102
 10
531.67383
 20
-169.58006
 42
-0.42915
 10
528.184611
 20
-172.715291
  0
HATCH
  5
FF5
100
AcDbEntity
  8
BORDER
100
AcDbHatch
 10
0.0
 20
0.0
 30
0.0
210
0.0
220
0.0
230
0.9999999999999998
  2
ANSI37
 70
     0
 71
     1
 91
        2
 92
        7
 72
     1
 73
     1
 93
       16
 10
524.6142478071362
 20
-176.425318615577
 42
-0.414213562373072
 10
523.4862910778081
 20
-177.5532753449052
 42
0.0
 10
522.9643065573578
 20
-177.5532753449052
 42
0.0
 10
522.9643065573579
 20
-177.8505823164509
 42
0.0
 10
527.8600326882338
 20
-177.8505823164509
 42
0.0
 10
527.8600326882338
 20
-177.5532753449052
 42
0.0
 10
527.3380481677839
 20
-177.5532753449052
 42
-0.41421356237311
 10
526.2100914384557
 20
-176.4253186155771
 42
0.0
 10
526.2100914384557
 20
-172.4720407234862
 42
0.0609117558023559
 10
528.1846111763439
 20
-172.715290650579
 42
0.4291497434370764
 10
531.6738299235217
 20
-169.5800599611908
 42
0.395102098730502
 10
528.216502769708
 20
-166.3814842771014
 42
0.0
 10
522.9727877494108
 20
-166.3814842771014
 42
0.0
 10
522.9727877494108
 20
-166.6963026696803
 42
0.0
 10
523.4862910778082
 20
-166.6963026696803
 42
-0.4142135623730508
 10
524.6142478071362
 20
-167.8242593990085
 42
0.0
 97
        1
330
FF4
 92
       22
 72
     1
 73
     1
 93
        3
 10
526.2100914384557
 20
-167.2286378274237
 42
-0.5287425889458898
 10
529.7534059984325
 20
-169.7151991858444
 42
-0.5439228899226021
 10
526.2100914384557
 20
-172.0395945272824
 42
0.0
 97
        1
330
100C
 75
     0
 76
     1
 52
0.0
 41
0.082951
 77
     0
 78
     2
 53
45.0
 43
471.629165
 44
-477.454483
 45
-0.0073318736633367
 46
0.0073318736633367
 79
     0
 53
135.0
 43
471.629165
 44
-477.454483
 45
-0.0073318736633367
 46
-0.0073318736633367
 79
     0
 47
0.027301
 98
        2
 10
525.254743
 20
-169.30143
 10
525.254743
 20
-169.30143
  0
LINE
  5
FF6
100
AcDbEntity
  8
BORDER
100
AcDbLine
 10
528.622277
 20
-180.144294
 30
0.0
 11
532.353576
 21
-180.144294
 31
0.0
  0
LINE
  5
FF7
100
AcDbEntity
  8
BORDER
100
AcDbLine
 10
524.908714
 20
-182.942153
 30
0.0
 11
527.08996
 21
-182.942153
 31
0.0
  0
LINE
  5
FF8
100
AcDbEntity
  8
BORDER
100
AcDbLine
 10
527.726743
 20
-184.547767
 30
0.0
 11
525.980336
 21
-180.144294
 31
0.0
  0
ARC
  5
FF9
100
AcDbEntity
  8
BORDER
100
AcDbCircle
 10
521.653997
 20
-181.273228
 30
0.0
 40
1.128935
100
AcDbArc
 50
270.0
 51
90.0
  0
LINE
  5
FFA
100
AcDbEntity
  8
BORDER
100
AcDbLine
 10
525.980336
 20
-180.144294
 30
0.0
 11
524.29374
 21
-184.547767
 31
0.0
  0
LINE
  5
FFB
100
AcDbEntity
  8
BORDER
100
AcDbLine
 10
521.336971
 20
-182.402163
 30
0.0
 11
523.085149
 21
-184.547767
 31
0.0
  0
LINE
  5
FFC
100
AcDbEntity
  8
BORDER
100
AcDbLine
 10
530.487927
 20
-180.144294
 30
0.0
 11
530.487927
 21
-184.547767
 31
0.0
  0
LINE
  5
FFD
100
AcDbEntity
  8
BORDER
100
AcDbLine
 10
539.057079
 20
-180.144294
 30
0.0
 11
537.395143
 21
-180.144294
 31
0.0
  0
LINE
  5
FFE
100
AcDbEntity
  8
BORDER
100
AcDbLine
 10
537.395143
 20
-184.547767
 30
0.0
 11
539.057079
 21
-184.547767
 31
0.0
  0
LINE
  5
FFF
102
{ACAD_REACTORS
330
FF3
102
}
100
AcDbEntity
  8
BORDER
100
AcDbLine
 10
537.490196
 20
-177.596725
 30
0.0
 11
537.490196
 21
-177.894032
 31
0.0
  0
LINE
  5
1000
102
{ACAD_REACTORS
330
FF3
102
}
100
AcDbEntity
  8
BORDER
100
AcDbLine
 10
532.59447
 20
-177.596725
 30
0.0
 11
532.59447
 21
-177.894032
 31
0.0
  0
LINE
  5
1001
102
{ACAD_REACTORS
330
FF3
102
}
100
AcDbEntity
  8
BORDER
100
AcDbLine
 10
532.59447
 20
-177.596725
 30
0.0
 11
533.116454
 21
-177.596725
 31
0.0
  0
LINE
  5
1002
100
AcDbEntity
  8
BORDER
100
AcDbLine
 10
533.326957
 20
-180.144294
 30
0.0
 11
536.167949
 21
-180.144294
 31
0.0
  0
LINE
  5
1003
100
AcDbEntity
  8
BORDER
100
AcDbLine
 10
533.326957
 20
-182.34603
 30
0.0
 11
535.216248
 21
-182.34603
 31
0.0
  0
LINE
  5
1004
102
{ACAD_REACTORS
330
FF3
102
}
100
AcDbEntity
  8
BORDER
100
AcDbLine
 10
536.968212
 20
-177.596725
 30
0.0
 11
537.490196
 21
-177.596725
 31
0.0
  0
LINE
  5
1005
102
{ACAD_REACTORS
330
FF3
102
}
100
AcDbEntity
  8
BORDER
100
AcDbLine
 10
532.59447
 20
-177.894032
 30
0.0
 11
537.490196
 21
-177.894032
 31
0.0
  0
LINE
  5
1006
100
AcDbEntity
  8
BORDER
100
AcDbLine
 10
536.167949
 20
-184.547767
 30
0.0
 11
533.326957
 21
-184.547767
 31
0.0
  0
LINE
  5
1007
100
AcDbEntity
  8
BORDER
100
AcDbLine
 10
537.395143
 20
-180.144294
 30
0.0
 11
537.395143
 21
-184.547767
 31
0.0
  0
LINE
  5
1008
100
AcDbEntity
  8
BORDER
100
AcDbLine
 10
533.326957
 20
-184.547767
 30
0.0
 11
533.326957
 21
-180.144294
 31
0.0
  0
ARC
  5
1009
100
AcDbEntity
  8
BORDER
100
AcDbCircle
 10
539.057079
 20
-182.34603
 30
0.0
 40
2.201736
100
AcDbArc
 50
270.0
 51
90.0
  0
LINE
  5
100A
100
AcDbEntity
  8
BORDER
100
AcDbLine
 10
532.735003
 20
-160.347227
 30
0.0
 11
531.56581
 21
-160.347227
 31
0.0
  0
LINE
  5
100B
100
AcDbEntity
  8
BORDER
100
AcDbLine
 10
531.56581
 20
-161.969898
 30
0.0
 11
532.735003
 21
-161.969898
 31
0.0
  0
LWPOLYLINE
  5
100C
102
{ACAD_REACTORS
330
FF5
102
}
100
AcDbEntity
  8
BORDER
100
AcDbPolyline
 90
        3
 70
     1
 43
0.0
 10
526.210091
 20
-172.039595
 42
0.543923
 10
529.753406
 20
-169.715199
 42
0.528743
 10
526.210091
 20
-167.228638
  0
ARC
  5
100D
100
AcDbEntity
  8
BORDER
100
AcDbCircle
 10
540.803868
 20
-139.0333
 30
0.0
 40
26.871171
100
AcDbArc
 50
236.383068
 51
240.315223
  0
ARC
  5
100E
100
AcDbEntity
  8
BORDER
100
AcDbCircle
 10
526.626813
 20
-161.340696
 30
0.0
 40
0.997034
100
AcDbArc
 50
25.379638
 51
143.047804
  0
ARC
  5
100F
100
AcDbEntity
  8
BORDER
100
AcDbCircle
 10
526.756211
 20
-162.542281
 30
0.0
 40
1.017704
100
AcDbArc
 50
200.502447
 51
334.026213
  0
LINE
  5
1010
100
AcDbEntity
  8
BORDER
100
AcDbLine
 10
524.751493
 20
-160.347227
 30
0.0
 11
524.751493
 21
-162.481985
 31
0.0
  0
LINE
  5
1011
100
AcDbEntity
  8
BORDER
100
AcDbLine
 10
522.592281
 20
-162.481985
 30
0.0
 11
522.592281
 21
-160.347227
 31
0.0
  0
ARC
  5
1012
100
AcDbEntity
  8
BORDER
100
AcDbCircle
 10
526.178275
 20
-161.03248
 30
0.0
 40
0.453906
100
AcDbArc
 50
140.101426
 51
236.383068
  0
ARC
  5
1013
100
AcDbEntity
  8
BORDER
100
AcDbCircle
 10
523.671887
 20
-162.481985
 30
0.0
 40
1.079606
100
AcDbArc
 50
180.0
 51
0.0
  0
LINE
  5
1014
100
AcDbEntity
  8
BORDER
100
AcDbLine
 10
531.56581
 20
-160.347227
 30
0.0
 11
531.56581
 21
-163.561591
 31
0.0
  0
LINE
  5
1015
100
AcDbEntity
  8
BORDER
100
AcDbLine
 10
529.562965
 20
-160.347227
 30
0.0
 11
529.562965
 21
-163.561591
 31
0.0
  0
ARC
  5
1016
100
AcDbEntity
  8
BORDER
100
AcDbCircle
 10
527.271728
 20
-162.772319
 30
0.0
 40
0.453906
100
AcDbArc
 50
331.630608
 51
60.315223
  0
LINE
  5
1017
100
AcDbEntity
  8
BORDER
100
AcDbLine
 10
528.242405
 20
-160.347227
 30
0.0
 11
530.883524
 21
-160.347227
 31
0.0
  0
ARC
  5
1018
102
{ACAD_REACTORS
330
FF3
102
}
100
AcDbEntity
  8
BORDER
100
AcDbCircle
 10
537.867379
 20
-169.870339
 30
0.0
 40
3.445467
100
AcDbArc
 50
4.10812
 51
90.34444
  0
ARC
  5
1019
102
{ACAD_REACTORS
330
FF3
102
}
100
AcDbEntity
  8
BORDER
100
AcDbCircle
 10
536.764904
 20
-169.722342
 30
0.0
 40
2.618917
100
AcDbArc
 50
359.205673
 51
110.674935
  0
ARC
  5
101A
102
{ACAD_REACTORS
330
FF3
102
}
100
AcDbEntity
  8
BORDER
100
AcDbCircle
 10
536.859637
 20
-169.774077
 30
0.0
 40
2.523979
100
AcDbArc
 50
246.179097
 51
0.350223
  0
ARC
  5
101B
102
{ACAD_REACTORS
330
FF3
102
}
100
AcDbEntity
  8
BORDER
100
AcDbCircle
 10
537.822181
 20
-164.563166
 30
0.0
 40
8.195578
100
AcDbArc
 50
256.005504
 51
269.948223
  0
LINE
  5
101C
102
{ACAD_REACTORS
330
FF3
102
}
100
AcDbEntity
  8
BORDER
100
AcDbLine
 10
532.602951
 20
-166.424934
 30
0.0
 11
537.888092
 21
-166.424934
 31
0.0
  0
LINE
  5
101D
102
{ACAD_REACTORS
330
FF3
102
}
100
AcDbEntity
  8
BORDER
100
AcDbLine
 10
535.840255
 20
-167.272087
 30
0.0
 11
535.840255
 21
-172.083044
 31
0.0
  0
ARC
  5
101E
102
{ACAD_REACTORS
330
FF3
102
}
100
AcDbEntity
  8
BORDER
100
AcDbCircle
 10
533.116454
 20
-167.867709
 30
0.0
 40
1.127957
100
AcDbArc
 50
0.0
 51
90.0
  0
LINE
  5
101F
102
{ACAD_REACTORS
330
FF3
102
}
100
AcDbEntity
  8
BORDER
100
AcDbLine
 10
532.602951
 20
-166.424934
 30
0.0
 11
532.602951
 21
-166.739752
 31
0.0
  0
LINE
  5
1020
102
{ACAD_REACTORS
330
FF3
102
}
100
AcDbEntity
  8
BORDER
100
AcDbLine
 10
532.602951
 20
-166.739752
 30
0.0
 11
533.116454
 21
-166.739752
 31
0.0
  0
LINE
  5
1021
102
{ACAD_REACTORS
330
FF3
102
}
100
AcDbEntity
  8
BORDER
100
AcDbLine
 10
535.840255
 20
-172.51549
 30
0.0
 11
535.840255
 21
-176.468768
 31
0.0
  0
LINE
  5
1022
102
{ACAD_REACTORS
330
FF3
102
}
100
AcDbEntity
  8
BORDER
100
AcDbLine
 10
534.244411
 20
-176.468768
 30
0.0
 11
534.244411
 21
-167.867709
 31
0.0
  0
ARC
  5
1023
102
{ACAD_REACTORS
330
FF3
102
}
100
AcDbEntity
  8
BORDER
100
AcDbCircle
 10
538.069335
 20
-169.532839
 30
0.0
 40
3.235929
100
AcDbArc
 50
265.488062
 51
358.394374
  0
LINE
  5
1024
100
AcDbEntity
  8
BORDER
100
AcDbLine
 10
536.519339
 20
-160.347227
 30
0.0
 11
538.454199
 21
-160.347227
 31
0.0
  0
LINE
  5
1025
100
AcDbEntity
  8
BORDER
100
AcDbLine
 10
536.519339
 20
-161.954409
 30
0.0
 11
538.032312
 21
-161.954409
 31
0.0
  0
LINE
  5
1026
100
AcDbEntity
  8
BORDER
100
AcDbLine
 10
538.454199
 20
-163.561591
 30
0.0
 11
536.519339
 21
-163.561591
 31
0.0
  0
ARC
  5
1027
100
AcDbEntity
  8
BORDER
100
AcDbCircle
 10
532.735003
 20
-161.158563
 30
0.0
 40
0.811335
100
AcDbArc
 50
270.0
 51
90.0
  0
LINE
  5
1028
100
AcDbEntity
  8
BORDER
100
AcDbLine
 10
534.53476
 20
-160.347227
 30
0.0
 11
535.524425
 21
-160.347227
 31
0.0
  0
LINE
  5
1029
100
AcDbEntity
  8
BORDER
100
AcDbLine
 10
534.53476
 20
-163.561591
 30
0.0
 11
535.524425
 21
-163.561591
 31
0.0
  0
LINE
  5
102A
100
AcDbEntity
  8
BORDER
100
AcDbLine
 10
535.029592
 20
-160.347227
 30
0.0
 11
535.029592
 21
-163.561591
 31
0.0
  0
LINE
  5
102B
100
AcDbEntity
  8
BORDER
100
AcDbLine
 10
536.519339
 20
-163.561591
 30
0.0
 11
536.519339
 21
-160.347227
 31
0.0
  0
LINE
  5
102C
100
AcDbEntity
  8
BORDER
100
AcDbLine
 10
532.51088
 20
-161.969898
 30
0.0
 11
533.530331
 21
-163.561591
 31
0.0
  0
ARC
  5
102D
100
AcDbEntity
  8
BORDER
100
AcDbCircle
 10
540.642269
 20
-162.772319
 30
0.0
 40
0.453906
100
AcDbArc
 50
331.630608
 51
60.315223
  0
ARC
  5
102E
100
AcDbEntity
  8
BORDER
100
AcDbCircle
 10
539.548815
 20
-161.03248
 30
0.0
 40
0.453906
100
AcDbArc
 50
140.101426
 51
236.383068
  0
ARC
  5
102F
100
AcDbEntity
  8
BORDER
100
AcDbCircle
 10
554.174408
 20
-139.0333
 30
0.0
 40
26.871171
100
AcDbArc
 50
236.383068
 51
240.315223
  0
ARC
  5
1030
100
AcDbEntity
  8
BORDER
100
AcDbCircle
 10
539.997354
 20
-161.340696
 30
0.0
 40
0.997034
100
AcDbArc
 50
25.379638
 51
143.047804
  0
ARC
  5
1031
100
AcDbEntity
  8
BORDER
100
AcDbCircle
 10
540.126751
 20
-162.542281
 30
0.0
 40
1.017704
100
AcDbArc
 50
200.502447
 51
334.026213
  0
LINE
  5
1032
100
AcDbEntity
  8
BORDER
100
AcDbLine
 10
549.816426
 20
-190.086055
 30
0.0
 11
549.816426
 21
-157.962657
 31
0.0
  0
LWPOLYLINE
  5
1033
100
AcDbEntity
  8
BORDER
 62
     5
100
AcDbPolyline
 90
        2
 70
     0
 43
2.67695
 10
555.170325
 20
-190.086055
 10
555.170325
 20
-157.962657
  0
LWPOLYLINE
  5
1034
100
AcDbEntity
  8
BORDER
 62
     5
100
AcDbPolyline
 90
        2
 70
     0
 43
2.67695
 10
560.524225
 20
-157.962657
 10
560.524225
 20
-190.086055
  0
TEXT
  5
1035
100
AcDbEntity
  8
BORDER
 62
     6
100
AcDbText
 10
582.410555
 20
-160.259314
 30
0.0
 40
2.762492
  1
VALVE VAULT OPTIONS
  7
ROMANC
100
AcDbText
  0
LINE
  5
1036
100
AcDbEntity
  8
BORDER
100
AcDbLine
 10
565.878124
 20
-190.086055
 30
0.0
 11
565.878124
 21
-177.870346
 31
0.0
  0
TEXT
  5
1037
100
AcDbEntity
  8
BORDER
 62
     6
100
AcDbText
 10
566.65389
 20
-168.539751
 30
0.0
 40
2.402167
  1
Reference:
  7
ROMANC
100
AcDbText
  0
LINE
  5
1038
100
AcDbEntity
  8
BORDER
100
AcDbLine
 10
565.878124
 20
-174.024356
 30
0.0
 11
565.878124
 21
-157.962657
 31
0.0
  0
TEXT
  5
1039
100
AcDbEntity
  8
BORDER
 62
     6
100
AcDbText
 10
604.585889
 20
-170.242848
 30
0.0
 40
2.402167
  1
-
  7
ROMANC
100
AcDbText
  0
TEXT
  5
103A
100
AcDbEntity
  8
BORDER
 62
     6
100
AcDbText
 10
674.552573
 20
-187.934989
 30
0.0
 40
3.078492
  1
07/08/03
  7
ROMAND
100
AcDbText
  0
LINE
  5
103B
100
AcDbEntity
  8
BORDER
100
AcDbLine
 10
647.484532
 20
-152.608758
 30
0.0
 11
766.778232
 21
-152.608758
 31
0.0
  0
LINE
  5
103C
100
AcDbEntity
  8
BORDER
100
AcDbLine
 10
647.484532
 20
-177.870346
 30
0.0
 11
707.885337
 21
-177.870346
 31
0.0
  0
LINE
  5
103D
100
AcDbEntity
  8
BORDER
100
AcDbLine
 10
647.484532
 20
-190.086055
 30
0.0
 11
707.885337
 21
-190.086055
 31
0.0
  0
TEXT
  5
103E
100
AcDbEntity
  8
BORDER
 62
     6
100
AcDbText
 10
687.887201
 20
-172.555649
 30
0.0
 40
2.009484
  1
in this print by any other source than TOPP INDUSTRIES, INC.
 41
0.839168
  7
ROMANS
 72
     5
 11
770.676223
 21
-172.555649
 31
0.0
100
AcDbText
  0
TEXT
  5
103F
100
AcDbEntity
  8
BORDER
 62
     6
100
AcDbText
 10
687.887201
 20
-169.302199
 30
0.0
 40
2.009484
  1
and will not be used to manufacture or procure the manufacture of the items shown
 41
0.600404
  7
ROMANS
 72
     5
 11
770.676223
 21
-169.302199
 31
0.0
100
AcDbText
  0
TEXT
  5
1040
100
AcDbEntity
  8
BORDER
 62
     6
100
AcDbText
 10
687.887201
 20
-166.048748
 30
0.0
 40
2.009484
  1
be used as a record or to identify or inspect parts or for other information purposes
 41
0.596266
  7
ROMANS
 72
     5
 11
770.676223
 21
-166.048748
 31
0.0
100
AcDbText
  0
TEXT
  5
1041
100
AcDbEntity
  8
BORDER
 62
     6
100
AcDbText
 10
687.887201
 20
-162.795297
 30
0.0
 40
2.009484
  1
restriction includes, but is not limited to the condition that this print will not only
 41
0.626489
  7
ROMANS
 72
     5
 11
770.676223
 21
-162.795297
 31
0.0
100
AcDbText
  0
TEXT
  5
1042
100
AcDbEntity
  8
BORDER
 62
     6
100
AcDbText
 10
687.887201
 20
-159.541846
 30
0.0
 40
2.009484
  1
by TOPP INDUSTRIES, INC. It is furnished on a strictly confidential basis.  This
 41
0.659437
  7
ROMANS
 72
     5
 11
770.676223
 21
-159.541846
 31
0.0
100
AcDbText
  0
TEXT
  5
1043
100
AcDbEntity
  8
BORDER
 62
     6
100
AcDbText
 10
687.887201
 20
-156.288395
 30
0.0
 40
2.009484
  1
This print is and contains confidential proprietary information owned exclusively
 41
0.656934
  7
ROMANS
 72
     5
 11
770.676223
 21
-156.288395
 31
0.0
100
AcDbText
  0
LINE
  5
1044
100
AcDbEntity
  8
BORDER
100
AcDbLine
 10
647.484532
 20
-174.024356
 30
0.0
 11
772.132131
 21
-174.024356
 31
0.0
  0
TEXT
  5
1045
100
AcDbEntity
  8
BORDER
 62
     6
100
AcDbText
 10
648.581884
 20
-173.32329
 30
0.0
 40
2.402167
  1
Date: 07/08/03
  7
ROMANC
100
AcDbText
  0
TEXT
  5
1046
100
AcDbEntity
  8
BORDER
 62
     6
100
AcDbText
 10
648.718818
 20
-182.050238
 30
0.0
 40
2.402167
  1
Supersedes Prints
  7
ROMANC
100
AcDbText
  0
TEXT
  5
1047
100
AcDbEntity
  8
BORDER
 62
     6
100
AcDbText
 10
648.718818
 20
-185.93946
 30
0.0
 40
2.402167
  1
Prior To:
  7
ROMANC
100
AcDbText
  0
TEXT
  5
1048
100
AcDbEntity
  8
BORDER
 62
     6
100
AcDbText
 10
648.581884
 20
-156.152599
 30
0.0
 40
2.402167
  1
Scale: None
  7
ROMANC
100
AcDbText
  0
TEXT
  5
1049
100
AcDbEntity
  8
BORDER
 62
     6
100
AcDbText
 10
648.581884
 20
-167.599726
 30
0.0
 40
2.402167
  1
Appv'd By: .
  7
ROMANC
100
AcDbText
  0
TEXT
  5
104A
100
AcDbEntity
  8
BORDER
 62
     6
100
AcDbText
 10
648.581884
 20
-161.876163
 30
0.0
 40
2.402167
  1
Drawn By:
  7
ROMANC
100
AcDbText
  0
LINE
  5
104B
100
AcDbEntity
  8
BORDER
100
AcDbLine
 10
647.484532
 20
-174.024356
 30
0.0
 11
647.484532
 21
-152.608758
 31
0.0
  0
LINE
  5
104C
100
AcDbEntity
  8
BORDER
100
AcDbLine
 10
647.484532
 20
-190.086055
 30
0.0
 11
647.484532
 21
-177.870346
 31
0.0
  0
TEXT
  5
104D
100
AcDbEntity
  8
BORDER
 62
     6
100
AcDbText
 10
670.627136
 20
-162.131992
 30
0.0
 40
3.276337
  1
RM
  7
COUNTRYBLUEPRINT
100
AcDbText
  0
TEXT
  5
104E
100
AcDbEntity
  8
BORDER
 62
     6
100
AcDbText
 10
733.541478
 20
-187.355208
 30
0.0
 40
7.2065
  1
10117
  7
ROMANC
100
AcDbText
  0
LINE
  5
104F
100
AcDbEntity
  8
BORDER
100
AcDbLine
 10
711.731326
 20
-190.086055
 30
0.0
 11
772.132131
 21
-190.086055
 31
0.0
  0
LINE
  5
1050
100
AcDbEntity
  8
BORDER
100
AcDbLine
 10
711.731326
 20
-177.870346
 30
0.0
 11
772.132131
 21
-177.870346
 31
0.0
  0
TEXT
  5
1051
100
AcDbEntity
  8
BORDER
 62
     6
100
AcDbText
 10
712.995537
 20
-181.784046
 30
0.0
 40
2.402167
  1
Reference
  7
ROMANC
100
AcDbText
  0
TEXT
  5
1052
100
AcDbEntity
  8
BORDER
 62
     6
100
AcDbText
 10
712.995537
 20
-185.673268
 30
0.0
 40
2.402167
  1
No:
  7
ROMANC
100
AcDbText
  0
LINE
  5
1053
100
AcDbEntity
  8
BORDER
100
AcDbLine
 10
707.885337
 20
-177.870346
 30
0.0
 11
707.885337
 21
-190.086055
 31
0.0
  0
LINE
  5
1054
100
AcDbEntity
  8
BORDER
100
AcDbLine
 10
711.731326
 20
-177.870346
 30
0.0
 11
711.731326
 21
-190.086055
 31
0.0
  0
LWPOLYLINE
  5
1055
100
AcDbEntity
  8
BORDER
 62
     5
100
AcDbPolyline
 90
        2
 70
     0
 43
2.67695
 10
766.778232
 20
-147.254858
 42
-0.414214
 10
777.486031
 20
-157.962657
 42
0.560527
  0
ARC
  5
1056
100
AcDbEntity
  8
BORDER
100
AcDbCircle
 10
766.778232
 20
-157.962657
 30
0.0
 40
5.3539
100
AcDbArc
 50
0.0
 51
90.0
  0
LWPOLYLINE
  5
1057
100
AcDbEntity
  8
BORDER
 62
     5
100
AcDbPolyline
 90
        2
 70
     0
 43
2.67695
 10
777.486031
 20
-190.086055
 10
777.486031
 20
-157.962657
  0
LWPOLYLINE
  5
1058
100
AcDbEntity
  8
BORDER
 62
     5
100
AcDbPolyline
 90
        2
 70
     0
 43
2.67695
 10
782.83993
 20
-190.086055
 10
782.83993
 20
-157.962657
  0
LINE
  5
1059
100
AcDbEntity
  8
BORDER
100
AcDbLine
 10
772.132131
 20
-177.870346
 30
0.0
 11
772.132131
 21
-190.086055
 31
0.0
  0
LINE
  5
105A
100
AcDbEntity
  8
BORDER
100
AcDbLine
 10
772.132131
 20
-157.962657
 30
0.0
 11
772.132131
 21
-174.024356
 31
0.0
  0
LWPOLYLINE
  5
105B
100
AcDbEntity
  8
BORDER
 62
     5
100
AcDbPolyline
 90
        2
 70
     0
 43
2.67695
 10
852.440625
 20
-195.439954
 42
0.414214
 10
863.148424
 20
-184.732155
 42
-0.560527
  0
LINE
  5
105C
100
AcDbEntity
  8
BORDER
100
AcDbLine
 10
852.440625
 20
-190.086055
 30
0.0
 11
788.19383
 21
-190.086055
 31
0.0
  0
TEXT
  5
105D
100
AcDbEntity
  8
BORDER
 62
     6
100
AcDbText
 10
799.361685
 20
-166.17427
 30
0.0
 40
2.67695
  1
First Released 06/27/03
  7
ROMAND
100
AcDbText
  0
LINE
  5
105E
100
AcDbEntity
  8
BORDER
100
AcDbLine
 10
852.440625
 20
-183.57901
 30
0.0
 11
793.54773
 21
-183.57901
 31
0.0
  0
LINE
  5
105F
100
AcDbEntity
  8
BORDER
100
AcDbLine
 10
852.440625
 20
-178.22511
 30
0.0
 11
793.54773
 21
-178.22511
 31
0.0
  0
LINE
  5
1060
100
AcDbEntity
  8
BORDER
100
AcDbLine
 10
852.440625
 20
-172.87121
 30
0.0
 11
793.54773
 21
-172.87121
 31
0.0
  0
LINE
  5
1061
100
AcDbEntity
  8
BORDER
100
AcDbLine
 10
852.440625
 20
-167.517311
 30
0.0
 11
793.54773
 21
-167.517311
 31
0.0
  0
LINE
  5
1062
100
AcDbEntity
  8
BORDER
100
AcDbLine
 10
852.440625
 20
-162.163411
 30
0.0
 11
793.54773
 21
-162.163411
 31
0.0
  0
LINE
  5
1063
100
AcDbEntity
  8
BORDER
100
AcDbLine
 10
852.440625
 20
-152.608758
 30
0.0
 11
793.54773
 21
-152.608758
 31
0.0
  0
LWPOLYLINE
  5
1064
100
AcDbEntity
  8
BORDER
 62
     5
100
AcDbPolyline
 90
        2
 70
     0
 43
2.67695
 10
852.440625
 20
-147.254858
 10
793.54773
 20
-147.254858
  0
TEXT
  5
1065
100
AcDbEntity
  8
BORDER
 62
     6
100
AcDbText
 10
808.714902
 20
-159.765601
 30
0.0
 40
3.60325
  1
Revisions
  7
ROMANC
100
AcDbText
  0
ARC
  5
1066
100
AcDbEntity
  8
BORDER
100
AcDbCircle
 10
793.54773
 20
-157.962657
 30
0.0
 40
5.3539
100
AcDbArc
 50
90.0
 51
180.0
  0
LINE
  5
1067
100
AcDbEntity
  8
BORDER
100
AcDbLine
 10
793.54773
 20
-162.163411
 30
0.0
 11
793.54773
 21
-183.57901
 31
0.0
  0
LINE
  5
1068
100
AcDbEntity
  8
BORDER
100
AcDbLine
 10
798.901629
 20
-162.163411
 30
0.0
 11
798.901629
 21
-183.57901
 31
0.0
  0
LINE
  5
1069
100
AcDbEntity
  8
BORDER
100
AcDbLine
 10
788.19383
 20
-190.086055
 30
0.0
 11
788.19383
 21
-157.962657
 31
0.0
  0
LWPOLYLINE
  5
106A
100
AcDbEntity
  8
BORDER
100
AcDbPolyline
 90
        6
 70
     1
 43
0.0
 10
797.364515
 20
-166.825588
 10
798.505165
 20
-164.849923
 10
797.364515
 20
-162.874258
 10
795.083213
 20
-162.874258
 10
793.942563
 20
-164.849923
 10
795.083213
 20
-166.825588
  0
TEXT
  5
106B
100
AcDbEntity
  8
BORDER
 62
     6
100
AcDbText
 10
794.952517
 20
-166.17427
 30
0.0
 40
2.67695
  1
1
  7
ROMAND
100
AcDbText
  0
ARC
  5
106C
100
AcDbEntity
  8
BORDER
100
AcDbCircle
 10
852.440625
 20
-157.962657
 30
0.0
 40
5.3539
100
AcDbArc
 50
0.0
 51
90.0
  0
LWPOLYLINE
  5
106D
100
AcDbEntity
  8
BORDER
 62
     5
100
AcDbPolyline
 90
        2
 70
     0
 43
2.67695
 10
852.440625
 20
-147.254858
 42
-0.414214
 10
863.148424
 20
-157.962657
 42
0.560527
  0
LINE
  5
106E
100
AcDbEntity
  8
BORDER
100
AcDbLine
 10
852.440625
 20
-162.163411
 30
0.0
 11
852.440625
 21
-183.57901
 31
0.0
  0
LINE
  5
106F
100
AcDbEntity
  8
BORDER
100
AcDbLine
 10
857.794524
 20
-184.732155
 30
0.0
 11
857.794524
 21
-157.962657
 31
0.0
  0
LWPOLYLINE
  5
1070
100
AcDbEntity
  8
BORDER
 62
     5
100
AcDbPolyline
 90
        2
 70
     0
 43
2.67695
 10
863.148424
 20
-157.962657
 10
863.148424
 20
-184.732155
  0
ARC
  5
1071
100
AcDbEntity
  8
BORDER
100
AcDbCircle
 10
852.440625
 20
-184.732155
 30
0.0
 40
5.3539
100
AcDbArc
 50
270.0
 51
0.0
  0
LWPOLYLINE
  5
1072
100
AcDbEntity
  8
BORDER
 62
     5
100
AcDbPolyline
 90
        2
 70
     0
 43
1.07078
 10
858.865304
 20
309.945981
 10
479.144952
 20
309.945981
  0
LINE
  5
1073
100
AcDbEntity
  8
BORDER
 62
     5
100
AcDbLine
 10
858.865304
 20
309.945981
 30
0.0
 11
479.144952
 21
309.945981
 31
0.0
  0
LINE
  5
1074
100
AcDbEntity
  8
LIMITS
 62
     7
100
AcDbLine
 10
871.714663
 20
318.51222
 30
0.0
 11
466.295593
 21
318.51222
 31
0.0
  0
ENDSEC
  0
SECTION
  2
OBJECTS
  0
DICTIONARY
  5
C
100
AcDbDictionary
  3
ACAD_GROUP
350
D
  3
ACAD_MLINESTYLE
350
1A
  3
ACDBVARIABLEDICTIONARY
350
32
  0
DICTIONARY
  5
D
102
{ACAD_REACTORS
330
C
102
}
100
AcDbDictionary
  0
DICTIONARY
  5
1A
102
{ACAD_REACTORS
330
C
102
}
100
AcDbDictionary
  3
STANDARD
350
1B
  0
DICTIONARY
  5
32
102
{ACAD_REACTORS
330
C
102
}
100
AcDbDictionary
  3
DIMADEC
350
33
  0
MLINESTYLE
  5
1B
102
{ACAD_REACTORS
330
1A
102
}
100
AcDbMlineStyle
  2
STANDARD
 70
     0
  3

 62
   256
 51
90.0
 52
90.0
 71
     2
 49
0.5
 62
   256
  6
BYLAYER
 49
-0.5
 62
   256
  6
BYLAYER
  0
DICTIONARYVAR
  5
33
102
{ACAD_REACTORS
330
32
102
}
100
DictionaryVariables
280
     0
  1
0
  0
ENDSEC
  0
EOF
